Oops, an error
Loading. Please wait.

Blinded By The Sun chords

22 views 12 this week
no commentswrite comment
1 2 3 4 5
3 more votes to show rating
add to favorites
×
Save as Personal and add changes to this tab that will be seen only by you. Learn more ›
×
You can save this tab as Personal to edit and correct it or add notes. All changes will be seen only by you. Learn more »
launch autoscroll
font size
0
reset
transpose
0
reset
display chords
guitar tuner
edit
Autoscroll
slow
fast
+/-
esc
set tempo
stop
Strumming
There is no strumming pattern for this song yet. and get +5 IQ
Chords :
A 577655
B 799877
D 10-12-12-11-10-10
E 022100
EXII 12-14-14-13-12-12
G 355433


[Intro & Main Riff]
e|------0---------------------5-----7---------0---------------------7-----5--|
B|------0---------------------5-----7---------0---------------------7-----5--|
G|------1---2/3\2p0-----------6-----8---------1---2/3\2p0-----------8-----6--|
D|--2-----------------2-------7-----9-----2-----------------2-------9-----7--| x2
A|--2-------------------------7-----9-----2-------------------------9-----7--|
E|--0---------------------0---5-----7-----0---------------------0---7-----5--|

e|------0---------------------5-----7---------0-----0-----0-----0--------------------|
B|------0---------------------5-----7------------------------------------------------|
G|------1---2/3\2p0-----------6-----8-----2h4---2h4---2h4---2h4---4p2p0--------------|
D|--2-----------------2-------7-----9-----------------------------------2--2--2-2--2-|
A|--2-------------------------7-----9------------------------------------------------|
E|--0---------------------0---5-----7------------------------------------------------|


[Verse]
    E                       G         A           E
Well, I can't crawl into a deep hole fast enough
                         A           G           E
You won't listen but I'm never gonna give you up
                G         A
Fingers crossed behind my back
E                           A                    G
I'm running out of time and slipping through the cracks and
B                                D
If I look it in the eyes, you've won
           EXII
'Cause I'm blinded by the sun

[Main Riff]

[Verse]
     E                  G             A              E
Well, I kinda wish that I could get inside your head
                         A         G            E
Throw a switch, make you listen to what I said
                         G              A          E
Then you'd see something there when you look at me
                   A             G            B
I'm not invisible, why can't you see that I'm
                          A
Not gonna give up and run
         G
When I'm blinded by the sun


[Bridge]
*Play this riff throughout the next verse and end it with a single open E at the mark on 
the last line
e|------0-0---0-0-0---3---3-5---5-|
B|------0-0---0-0-0---3---3-5---5-|
G|------1-1---1-1-1---4---4-6---6-|
D|--2-----------------5---5-7---7-| x7
A|--2-----------------5---5-7---7-|
E|--0---------------3-3---3/5---5-|

[Verse]
Well my friends say that I hold you too high

I built a pedestal that reaches the sky and

All my attempts are in vain
         E
But they don't know the pleasure that I find in pain


[Solo]
A E A B G

[Outro - Same as Intro/Main Riff]

*Start riff on "blind", play twice
'Cause I'm blind                                                    Blinded by the sun
e|------0---------------------5-----7---------0---------------------7-----5--|
B|------0---------------------5-----7---------0---------------------7-----5--|
G|------1---2/3\2p0-----------6-----8---------1---2/3\2p0-----------8-----6--|
D|--2-----------------2-------7-----9-----2-----------------2-------9-----7--| x2
A|--2-------------------------7-----9-----2-------------------------9-----7--|
E|--0---------------------0---5-----7-----0---------------------0---7-----5--|



************************************

| p  Pull-off
| /  Slide up
| \  Slide down
| h  Hammer-on
 

************************************
Suggest correction
Creating personal tab
Creating personal tab
You can edit any tab online and save it as your Personal.

You can edit, replace or remove any tab part or add personal notes – all changes will be seen only by you.

Personal tabs can be accessed anytime from any device, even offline.
Learn more »
Give kudos to tab author, rate the tab!
1 2 3 4 5
comments
print report bad tab
guest
You may want to rate the tab now too:
select rating
Wanna post a correction for this tab? Suggest correction