Oops, an error
Loading. Please wait.

Jealous Of The Moon Tab

version 2
version 2

Whole song

5,543 views 9 this week
no commentswrite comment
1 2 3 4 5
please rate
add to favorites
launch autoscroll
font size
0
reset
how to read this tab
guitar tuner
Autoscroll
slow
fast
+/-
esc
set tempo
stop
Help us to improve Ultimate-Guitar.com Take our survey!
×
Author
Difficulty
intermediate
     Hey, so im jeremy and I love this song!  It has some wicked harmonies in the 
Altogether its a great so.

     Im pretty sure this is at least 95% right.  The other tabs have the chording right 
not the intro.

     In the recording this part goes through the verse too. So if youre playing with 
you can keep doing this, otherwise switch to the chords after the intro.


If you have any questions or corrections you can email them to me! Thejermyking@aol.com   Thanks!


                    Chords Used

   Am   C   Caug  C7    Fm   Dm    G    Em   E    F
e|-0--|-0--|-0--|--0--|-1--|--1--|-3--|-0--|-0--|-1--||
B|-1--|-1--|-1--|--1--|-1--|--3--|-3--|-0--|-0--|-1--||
G|-2--|-0--|-1--|--3--|-1--|--2--|-0--|-0--|-1--|-2--||
D|-2--|-2--|-2--|--2--|-3--|--X--|-0--|-2--|-2--|-3--||
A|-0--|-3--|-3--|--3--|-3--|--X--|-2--|-2--|-2--|-3--||
E|-X--|-X--|-X--|--X--|-1--|--X--|-3--|-0--|-0--|-1--||

For Dm, Try to emphasize the first three strings, dont make the minor stand out.


INTRO

e| ---------|--------|---------|--------|
B| ----5--5-|---5--5-|----5--5-|---5--5-|
G| ---5--5--|--5--5--|---5--5--|--5--5--|
D| --7--7---|-7--7---|--6--6---|-6--6---|
A| ---------|--------|---------|--------|
E| ---------|--------|---------|--------|


e| ---------|--------|---------|------------|
B| ----5--5-|---5--5-|----5--5-|-8-5--------|
G| ---5--5--|--5--5--|---5--5--|----7-5-2---|
D| --7--7---|-7--7---|--6--6---|------------|
A| ---------|--------|---------|------------|
E| ---------|--------|---------|------------|

VERSE 1
Am                 Caug
You're trying on a brand new dress,
Am                        C7
but you haven’t worn the old one yet
                 Fm   Dm               Am
You've come too far     To turn around now


(Am)                Caug
You've given up the good fight,

Am                   C7
  you’re as strong as anyone
                      Fm          Dm
You're back where you started from
                           Fm          Dm
I see you're back where you started from

CHORUS

C                       Em                     F
You're staring down the stars,  jealous of the moon
  Dm              G
You wish you could fly
C                            Em                       F
But you're staying where you are, there's nothing you can do
          Dm            G
If you're too scared to try


e| ---------|--------|---------|--------|
B| ----5--5-|---5--5-|----5--5-|---5--5-|
G| ---5--5--|--5--5--|---5--5--|--5--5--|
D| --7--7---|-7--7---|--6--6---|-6--6---|
A| ---------|--------|---------|--------|
E| ---------|--------|---------|--------|


e| ---------|--------|---------|------------|
B| ----5--5-|---5--5-|----5--5-|-8-5--------|
G| ---5--5--|--5--5--|---5--5--|----7-5-2---|
D| --7--7---|-7--7---|--6--6---|------------|
A| ---------|--------|---------|------------|
E| ---------|--------|---------|------------|


VERSE 2

Am               Caug
Drag your pretty head around,

Am              C7
swearin' you're gonna drown

                 Fm     Dm
With a beautiful sigh
                 Fm     Dm
And a river of lies


CHORUS


BRIDGE
E                                Am
  Why don't you call me? I could save you
E                                  F
  Together we'll find a God we can pray to
        Dm
That'll take you by
Am                       Caug
The hand I hate to see a friend of mine,
Am         C7                     Fm       Dm
laughing out loud when she’s crying inside
                Fm        Dm
But you've got your pride

CHORUS

OUTRO

C                       Em      C                   Em
You're staring down the stars    Stay where you are
C                     Em                           F
You're jealous of the moon but there's nothing you can do
          Dm         G
If you're too scared to try


              Dm      Dsus2   Dm7     G
   (to try)             If..  too...  try..
  e|---------|-1~----|-0~----|-1~----|3-|
  B|---------|-3~----|-2~----|-1~----|0-|
  G|---------|-2~----|-2~----|-2~----|0-|
  D|---------|-------|-------|-------|0-|
  A|---------|-------|-------|-------|2-|
  E|---------|-------|-------|-------|3-|

e| ---------|--------|---------|--------|
B| ----5--5-|---5--5-|----5--5-|---5--5-|
G| ---5--5--|--5--5--|---5--5--|--5--5--|
D| --7--7---|-7--7---|--7--7---|-7--7---|
A| ---------|--------|---------|--------|
E| ---------|--------|---------|--------|


e| ---------|--------|-5~------||
B| ----5--5-|---5--5-|-5~------||
G| ---5--5--|--5--5--|-5~------||
D| --7--7---|-7--7---|-7~------||
A| ---------|--------|-0~------||
E| ---------|--------|---------||
      Slower

                                  The End
Suggest correction
What's this?
You can suggest a correction to this tab. Community and Mods will review your correction and vote to approve or reject it.
comments
We did not receive enough feedback on this tab! Please rate:
print report bad tab
1 2 3 4 5
guest
You may want to rate the tab now too:
select rating
Please do not post tabs as comments. Select "correction" instead!