Oops, an error
Loading. Please wait.

Somebody More Like You Tab

version 1
version 1

Whole song

Interactive

10,779 views 18 this week
3 commentsread comments
1 2 3 4 5
x 5
add to favorites
launch autoscroll
font size
0
reset
how to read this tab
guitar tuner
Autoscroll
slow
fast
+/-
esc
set tempo
stop
Help us to improve Ultimate-Guitar.com Take our survey!
×
Difficulty
intermediate
Do you have ANY idea how long this took to figure out?! Hehe, any questions email me at RockMastaFred@aol.com
(another tab brought to you by Fred "Mutha Fuckin'" Ramsey)


e----------------------------------------------------------------------------|
B------------------------5-7/9-9-----7---------7-----5---------2-----0-------|
G--------------------6-------------------------------------------------------|
D------------------6---6-----------------------------------------------------|
A4-4-4-4-4-4-4-4-4-----------------------------------------------------------|
E------------------------------7-7-7-7-7-7-7-7-5-5-5-5-5-5-5-5-0-0-0-0-0-0-0-|


e-------------------------------------------------|
B-----------0-2-4-5---------5-7/9-9---------------|
G-----------------------6-----------------8-------|
D-------4-------------6---6-----------------------|
A-----4---4---------4-----------------------------|
E-1-2-----------------------------8-8-8-8-8-8-8-8-|


e-------------------------------------------------------------|
B---------5-7/9-9-----7---------7-----5---------2-----0-------|
G-----6-------------------------------------------------------|
D---6---6-----------------------------------------------------|
A-4-----------------------------------------------------------|
E---------------7-7-7-7-7-7-7-7-5-5-5-5-5-5-5-5-0-0-0-0-0-0-0-|


e-----------------------------------------------------------------------------|
B-----------0-2-4-5---------5-7/9-9-------7-------5---------------------------|
G-----------------------6-----------------------------------------------------|
D-------4-------------6---6---------------------------------------------------|
A-----4---4---------4---------------------------------------------------------|
E-1-2-----------------------------7-7-7-7-7-7-7-7-0-0-0-0-0-0-0-0-0-0-0-0-0-0-|
Suggest correction
comments
print report bad tab
3 comments total.
0 reply
mandolinjunkie 10 May 17, 2007 10:57 PM

great tab. this is perfect.

0 reply
willisiscool 73 Jul 23, 2010 10:29 PM

you missed the in-between bass notes but other than that this is the best tab for this song here. WAY easier to play than the other versions.

0 reply
darb0114 20 Jan 31, 2012 07:00 PM

Great job. There are some random bass parts in there as willsicool noted, but just this one note bugged me on the second line.

e-------------------| e-------------------|
B-----------0-2-4-5-| B-----------0-2-4-5-|
G-------2-----------| not G-------------------|
D-------------------| D-------4-----------|
A-----4---4---------| A-----4---4---------|
E-1-2---------------| E-1-2---------------|

guest
You may want to rate the tab now too:
select rating
Wanna post a correction for this tab? Suggest correction