Oops, an error
Loading. Please wait.

This Side chords

version 4
version 4

Interactive

1 view 1 this week
no commentswrite comment
1 2 3 4 5
3 more votes to show rating
add to favorites
×
Save as Personal and add changes to this tab that will be seen only by you. Learn more ›
×
You can save this tab as Personal to edit and correct it or add notes. All changes will be seen only by you. Learn more »
launch autoscroll
font size
0
reset
transpose
0
reset
simplify chords
display chords
guitar tuner
edit
Autoscroll
slow
fast
+/-
esc
set tempo
stop
Strumming
There is no strumming pattern for this song yet. and get +5 IQ
"This Side" 
Written by Sean Watkins
Transcribed by Greg Froehle

Chords Used:                      *   
    E  C#m7 Asus2 Bsus4 Cdim G#  F#m7  Bbm7(5b) Cmaj7 D6(9)  D#?
E|--0----0----0-----0--------4----0------0--------0-----0-----0----|
B|--0----0----0-----0----4---4----0------2--------0-----0-----0----|
G|--1----6----2-----4----2---5----2------1--------5-----7-----8----|
D|--2----6----2-----4----4---6----4------2--------5-----7-----8----|
A|--2----4----0-----2----3---6----4------1--------3-----5-----6----|
E|--0------------------------4----2--------------------------------|
                                    

*On the F#m7, you'll need to use your thumb

Intro:                                                 *Hammer-on
e|0-------0-------2-----2-4-0---0-|----------0---0---0---0---------|
B|----0-------0-------0-------4---|--0-----------------24--4-2-0---|
G|--------------------------------|------2-----------------------2-|
D|--------------------------------|--------------------------------|
A|--------------------------------|--------------------------------|
E|--------------------------------|--------------------------------|

e|--------0-------2-----2-4-0---0-|----------0---0---0---0---------|
B|----0-------0-------0-------4---|--0-----------------24--4-2-0---|
G|1-------------------------------|------2-----------------------2-|
D|--------------------------------|--------------------------------|
A|--------------------------------|--------------------------------|
E|--------------------------------|--------------------------------|

[Intro]
(Same as 1st half of verse)
E, C#m7, Asus2, Bsus4
E, C#m7, Asus2, Bsus4

[Verse]
E              C#m7               Asus2        Bsus4
One day you'll see her and you'll know what I mean
E           C#m7               Asus2          Bsus4  Cdim
Take her or leave her she will still be the same
C#m7       G#     Asus2            Bsus4
She'll not try to buy you with her time
E             C#m7             Asus2           Bsus4
Nothing's the same as you will see when she's gone

[Chorus]
Asus2                  Bsus4
It's foreign on this side
         C#m7         F#m7   Asus2
And I'll not leave my home again
Bsus4                  C#m7
There's no place to hide 
        Asus2         Bsus4
And I'm nothing but scared

E, C#m7, Asus2, Bsus4
E, C#m7, Asus2, Bsus4

[Verse]
E              C#m7           Asus2        Bsus4
You dream of colors that have never been made
      E        C#m7         Asus2        Bsus4      Cdim
You imagine songs that have never been played (They will try)
C#m7      G#      Asus2          Bsus4
They will try to buy you and your mind
E        C#m7         Asus2        Bsus4
Only the curious have something to find

[Chorus]
Asus2                 Bsus4
It's foreign on this side
        C#m7       F#m7   Asus2
And the truth is a bitter friend
Bsus4            C#m7
Reasons few have I 
Bbm7(b5)    Asus2   Bsus4  Cdim
To go back again 

[Interlude]
(Mandolin solo)
C#m7   Bbm7(b5)
C#m7   Bbm7(b5)
C#m7   Bbm7(b5)
Asus2 (to Violin solo)


[Mandolin Solo]
                    C#m7             Bbm7(b5)          C#m7
   (pickup)
E|----0-----0---2---|4---2---0-2-4-9-|9-0-7-4-7-9-12-0-|9-7-9-9-9-7-7-9-|
A|--2---2/4---4---4-|--4---4---------|-----------------|----1111119-9-11|
D|------------------|----------------|-----------------|----------------|
G|------------------|----------------|-----------------|----------------|

Bbm7(b5)          C#m7              Bbm7(b5)
            pull-off*
E|9-1212--0-2h4---|320---0-2-7-7-4-|4-9-9-7-4-7-9-12-|0--0--0-0----|
A|111414----------|----4-----------|-----------------|---2--1/2----|
D|----------------|----------------|-----------------|---2--1/2----|
G|----------------|----------------|-----------------|---2--1/2----|

[Violin Solo]
(Chords identical to chorus except for the chromatic walk-up part at the end.
Asus2    Bsus4
C#m7     F#m7  Asus2
Bsus4    (Rhythmic change from chorus)
C#m7     Bbm7(b5)
Asus2    Bsus4    Cmaj7    C#m7    D6(9)   D#?   
  
[Verse]
E (Ring out)                                       *Guitar Fill
Your first dawn blinded you, left you cursing the day
                                                           Cdim
Your entrance is crucial, and it's not without pain (There's no path)
C#m7       Bbm7(b5)  Asus2            Bsus4
There's no path to follow once you're here

               E    C#m7                  Asus2            Bsus4
You'll climb up the slide and then you'll slide down the stairs

[Chorus]
Asus2                Bsus4
It's foreign on this side
       C#m7           F#m7  Asus2
But it feels like I'm home again
Bsus4                  C#m7
There's not place to hide 
      Bbm7(b5)         Asus2
But I don't think I'm sacred
                             Bsus4     Cdim
   (There's no place to hide but I don't think I'm scared)
                           (There's no place to hide)
C#m7       Bbm7(b5)
There's no place to hide
Asus2  Bsus4         
And I don't think I'm sacred.

E, C#m7, Asus2, Bsus4
E, C#m7, Asus2, Bsus4

[Outro]
(almost the same as the intro, with a subtle difference in the second line)
                                                       *Hammer-on
e|0-------0-------2-----2-4-0---0-|-------0-----0----0---0---------|
B|0---0-------0-------0-------4---|--0-----------------24--4-2-0---|
G|1-------------------------------|----2-------------------------2-|
D|2-------------------------------|--------------------------------|
A|2-------------------------------|--------------------------------|
E|0-------------------------------|--------------------------------|
  E
e|----0-----------2-----2-4-0---0-|-------0-----0----0---0---------|----|
B|--0---------0-------0-------4---|--0-----------------24--4-2-0---|----|
G|1-------------------------------|----2-------------------------2-|1~--|
D|--------------------------------|--------------------------------|----|
A|--------------------------------|--------------------------------|----|
E|--------------------------------|--------------------------------|----|

*Guitar fill during verse 3 (you have to listen to hear exactly where it goes)
E|------0---0-0-0-------|----|
B|----------------2-0---|----|
G|----------------------|1~--|
D|----------------------|----|
A|----------------------|----|
E|----------------------|----|

************************************

| /  Slide up
| h  Hammer-on
| ~  Vibrato

************************************
Suggest correction
Creating personal tab
Creating personal tab
You can edit any tab online and save it as your Personal.

You can edit, replace or remove any tab part or add personal notes – all changes will be seen only by you.

Personal tabs can be accessed anytime from any device, even offline.
Learn more »
Give kudos to tab author, rate the tab!
1 2 3 4 5
comments
print report bad tab
guest
Wanna post a correction for this tab? Suggest correction