Oops, an error
Loading. Please wait.

This Side chords

version 6
version 6

Interactive

19 views 3 this week
no commentswrite comment
1 2 3 4 5
3 more votes to show rating
add to favorites
×
Save as Personal and add changes to this tab that will be seen only by you. Learn more ›
×
You can save this tab as Personal to edit and correct it or add notes. All changes will be seen only by you. Learn more »
launch autoscroll
font size
0
reset
transpose
0
reset
simplify chords
display chords
guitar tuner
edit
Autoscroll
slow
fast
+/-
esc
set tempo
stop
Strumming
There is no strumming pattern for this song yet. and get +5 IQ
[Intro]
E|0-------0-------|0-------0-------|0-------0-------|0-------0---|
A|----2-------2---|----2-------2---|----0-------0---|----0-----0-|
D|----------------|----------------|----------------|------------|
G|----------------|----------------|----------------|------------|

E|0-------0-------|0-------0-------|0-------0------0-------------|
A|----------------|----------------|-----------------0---2-4-5-6-|
D|---6--------6---|----6-------6---|----4------6-----------------|
G|----------------|----------------|-----------------------------|

E|0-----0-------|2-----2-4-0----0-|0-----0-----0-|0-----0--------|
A----2-----2---|----2--------6--------0-----0---|---4-6---6-4-2-0|
D|----------------|----------------|------------------|----------|
G|----------------|----------------|------------------|----------|

E|-------0-------|2----+2-4-0---0-|(0)-0----0-----0-|0-----0-----|
A|----2-------2---|--2--------6---|------0-----0---|---4-6--6-4-0|
D|6---------------|----------------|------------------|----------|
G|----------------|----------------|------------------|----------|

E|--------|
A|-4---6--|
D|--------|
G|--------|

 E             C#m                 A           Bsus
One day you'll see her and you'll know what I mean.
E             C#m                 A           Bsus  cm 
Take her of leave her she will still be the same.
 C#m        Ab         A            Bsus
She'll not try to buy you with her time.
E                  C#m               A             Bsus
But nothing's the same, as you will see when she's gone.
Bsus
It's foreign on this side,  
         C#m            A     Bsus 
And I'll not leave my home again.
C#m                       
There's no place to hide
          A           Bsus
And I'm nothing but scared.
 E             C#m             A         Bsus
You dream of colors that have never been made,
E            C#m             A         Bsus
You imagine songs that have never been played.
C#m        ab         a            Bsus
They will try to buy you and your mind.
E          C#m           A         Bsus
Only the curious have something to find.

       Bsus
It's foreign on this side,
         C#m         A      Bsus
And the truth is a bitter friend.
      C#m            A             Bsus 
But reasons few have I to go back again

C#m         Ab        A                  Bsus
There's no path to follow, once you're here.
 E                    C#m                   A              bsus
You'll climb up the slide and then you'll slide down the stairs.
Bsus                    
It's foreign on this side,
         C#m            A    bsus
But it feels like I'm home again.
 C#m                  A
There's no place to hide
        Bsus 
But I don't think I'm scared.
 C#m                       A      Bsus
(there's no place to hide but i dont think i'm scared)
C#m                  A           
there's no place to hide
Bsus
But I don't think I'm scared     (intro) 
                                


 

            
            
Suggest correction
Creating personal tab
Creating personal tab
You can edit any tab online and save it as your Personal.

You can edit, replace or remove any tab part or add personal notes – all changes will be seen only by you.

Personal tabs can be accessed anytime from any device, even offline.
Learn more »
Give kudos to tab author, rate the tab!
1 2 3 4 5
comments
print report bad tab
guest
Wanna post a correction for this tab? Suggest correction