Oops, an error
Loading. Please wait.

Animals Bass Tab

version 1
version 1
28,626 views 15 this week
5 commentsread comments
1 2 3 4 5
x 10
add to favorites
launch autoscroll
font size
0
reset
guitar tuner
Autoscroll
slow
fast
+/-
esc
set tempo
stop
Help us to improve Ultimate-Guitar.com Take our survey!
×
Difficulty
Tuning
novice
D A D G B E
Intro


G---------|
D---3-----|
A-55-3-5--|x4
D-------55|

first and third time do a slide down from 5 on the low d string
wait for the drum fills inbetween

G-----------------|
D---3-------------|
A-55-3-5----------|
D-------55-1-33-55|

G---------|
D---3-----|
A-55-3-5--|
D-------55|


G-----------------|
D---3-------------|
A-55-3-5----------|
D-------55-1-33-55|

G---------|
D---3-----|
A-55-3-5--|
D-------55|

Verse

G-----------------------------------|
D-----------------------------------|
A--------------------------33-3-33-3|x4
D-00-0-00-0-00-0-55-5-55-5----------|

Chorus


G---------|
D---3-----|
A-55-3-5--|x4
D-------55|

Come on baby get in part

G-----------------|
D---3-------------|
A-55-3-5----------|
D-------55-1-33-55|

G---------|
D---3-----|
A-55-3-5--|
D-------55|


G-----------------|
D---3-------------|
A-55-3-5----------|
D-------55-1-33-55|

G---------|
D---3-----|
A-55-3-5--|
D-------55|

Verse
Chorus
Come on baby get in part

Third verse play the same notes but just sixteenth notes w/out seperations


yea this song is super easy you shouldnt have a problem with this i dont know why no 
one else has submitted a tab for this.
Suggest correction
comments
print report bad tab
5 comments total. Showing first comments.
0 reply
ibanez_bass22 10 Jun 05, 2006 04:32 PM

love it

0 reply
Johnson619 31 Jun 18, 2006 01:27 AM

Its good, but on the verse it should be

G---------------------------------------
D------------------------------33-3-33-3
A--------------------55-5-55-5----------
D--00-0-00-0-00-0-00--------------------
you need another two 00, other wise you end way before the chorus, also after the verse, you put that you only play the intro part 4 times, i listened to it, you have to play the intro part that had the 1-33-55 in it 4 times, then play the normal one 4 times.

0 reply
Nate16 72 Nov 17, 2006 12:28 PM

good tabs but you have the chorus and "come on baby get in" part reversed. good tab though man

guest
You may want to rate the tab now too:
select rating
Wanna post a correction for this tab? Suggest correction