Oops, an error
Loading. Please wait.

Animals Tab

version 1
version 1
195,624 views 174 this week
14 commentsread comments
1 2 3 4 5
excellent!
x 35
add to favorites
launch autoscroll
font size
0
reset
how to read this tab
guitar tuner
Autoscroll
slow
fast
+/-
esc
set tempo
stop
Help us to improve Ultimate-Guitar.com Take our survey!
×
Difficulty
Tuning
novice
D A D G B E
from All the right reasons

Tabbed by Bruno Guimaraes

brunog10@yahoo.com


Riff 1 [Intro]

e|----------------|
b|----------------|
g|-7-7-----5------|
D|-7-7--3--5--5-5-| 
A|-5-5--3--3--5-5-|
D|------3-----5-5-|(x4)


[Riff 2]

e|------------------------------------------|
b|------------------------------------------|
g|-7-7-----5-------3-3/5-5/7--7-7-----5-----|
D|-7-7--3--5--5-5--3-3/5-5/7--5-7--3--5-5-5-|
A|-5-5--3--3--5-5--1-1/3-3/5--5-5--3--3-5-5-|
D|------3-----5-5------------------3----5-5-|(x2)


[Riff 3]

e|-----------------------------------------|
b|-----------------------------------------|
g|-7--7-7--7-7--7-7--7-----------5--5-5--5-|
D|-7--7-7--7-7--7-7--7-5--5-5--5-5--5-5--5-|
A|-5--5-5--5-5--5-5--5-5--5-5--5-3--3-3--3-|
D|---------------------5--5-5--5-----------|


************************************

| /  Slide up

************************************
Suggest correction
comments
print report bad tab
14 comments total. Showing first comments.
0 reply
Royokyo_Saturos 10 wrote on April 17 2006, 06:18 pm

Im not sure, but i think the third chord in the intro in higher than the first and second. pretty good, though

0 reply
Kirdy 20 wrote on September 25 2006, 08:00 pm

yeh i think it's jus the intro bit! maybe the 2nd chord.

+2 reply
C_Turton 31 wrote on November 9 2006, 03:40 am

Not bad at all. The intro should be:

e|------------------|
b|------------------|
g|-7-------5--------|
D|-7-0--3--5--5-5-5-| X 4
A|-5-0--3--3--5-5-5-|
D|---0--3-----5-5-5-|

guest
You may want to rate the tab now too:
select rating
Wanna post a correction for this tab? Suggest correction