Oops, an error
Loading. Please wait.
We have Chord Pro version of Animals.
It's the closest thing you can get to the original song and it has interactive parts. Check out the tab »
×
3,629 views 9 this week
no commentswrite comment
1 2 3 4 5
2 more votes to show rating
add to favorites
launch autoscroll
font size
0
reset
guitar tuner
backing track
0:00
0:00
Autoscroll
slow
fast
+/-
esc
set tempo
stop
Author
Difficulty
Tuning
intermediate
B F# B E
----------------------------------------------------------------------------
			     Animals - Nickelback
----------------------------------------------------------------------------

Tabbed By : Harley Fay 
e-mail: wefay@charter.net

Tuning: Drop C
Ok, there is a note in this song that you can't play with a 4 string in Drop
D. So I retuned to a drop C and tabbed it. Check it out, sounds pretty good
to me!

Intro (all guitar except for one slide, listen for timing)
F------|
C------|
G------|
C-12\--|

F-----------------------------------------------------------------|
C-----------------------------------------------------------------|
G-----77---5-----33/5-5-77---5-------77---5-----33/5-5-77---5-----| 
C-12\----5---777-----------5---777------5---777-----------5---777-|

F------------------------------------|
C------------------------------------|
G---------------------------55-555-5-|X2
C-22-222-222-22252-77-777-7----------|

F------------------------------------------------------------------------|
C------------------------------------------------------------------------|
G---------------------------------------------------------------55-555-5-|
C-22-222-222-222-2-77-777-7-00-000-0--22-222-222-222-2-77-777-7----------|

F--------------------------------------|
C--------------------------------------|
G--77---5-----33/5-5-77---5-----33/5-5-|X2 
C-----5---777-----------5---777--------|

F--------------------------|
C--------------------------|
G--77---5-------77---5-----|X2 
C-----5---777\-----5---777-|

F------------------------------------|
C------------------------------------|
G---------------------------55-555-5-|X2
C-22-222-222-22252-77-777-7----------|

F------------------------------------------------------------------------|
C------------------------------------------------------------------------|
G---------------------------------------------------------------55555555-|
C-22-222-222-222-2-77-777-7-00-000-0--22-222-222-222-2-77-777-7----------|

F--------------------------------------|
C--------------------------------------|
G--77---5-----33/5-5-77---5-----33/5-5-|X2
C-----5---777-----------5---777--------|

F--------------------------|
C--------------------------|
G--77---5-------77---5-----|X2 
C-----5---777\-----5---777-|

F-------------------------------|
C-------------------------------|
G-----------------------5555555-|X2
C-2222222222222-7777777---------|

F------------------------------------------------------------------------|
C------------------------------------------------------------------------|
G---------------------------------------------------------------55555555-|
C-22-222-222-222-2-77-777-7-00-000-0--22-222-222-222-2-77-777-7----------|

F--------------------------------------|
C--------------------------------------|
G--77---5-----33/5-5-77---5-----33/5-5-|X4
C-----5---777-----------5---777--------|


/=SLIDE UP
\=SLIDE DOWN
Suggest correction
Give kudos to tab author, rate the tab!
1 2 3 4 5
comments
print report bad tab
guest
You may want to rate the tab now too:
select rating
Wanna post a correction for this tab? Suggest correction