Oops, an error
Loading. Please wait.

Animals Bass Tab

version 2
version 2
36,127 views 18 this week
19 commentsread comments
1 2 3 4 5
accurate
x 22
add to favorites
launch autoscroll
font size
0
reset
guitar tuner
Autoscroll
slow
fast
+/-
esc
set tempo
stop
Help us to improve Ultimate-Guitar.com Take our survey!
×
Author
Difficulty
Tuning
novice
D A D G B E
Band: Nickelback
Song: Animals
Tuning: 5-string B D A D G (can also be played on a 4 string there's one part in the 
were he uses a 5 string. these notes (3333) are the notes for a 4 string instead off the 
for the 5 string. 4-string ofcours also Drop D
Tabbed By ClosedRoad

\\\: slide down
/: slide up
p: pull off

Intro
first only guitar

Thrid bar of the guitar play:
G --------|
D --------|
A --------|
D -5\\\0--|

Intro
G ------------------------------------|
D ------------------------------------| 2x
A --5-----3------11/333--5-----3------|
D ----0-3---555------------0-3---555--|

Verse
G ---------------------------------------|
D ---------------------------------------| 2x
A ----------------------------333-333-3--|
D -0-000-000-000304-555-555-5------------|

Verse (with guitar)
G ---------------------------------------|
D ---------------------------------------|
A --------------------------(333-333-3)--| if you listen carfully you'll
D -0-000-000-000-0-555-555-5-------------| here the bass go lower
B ---------------------------111-111-1---|

G ---------------------------------------|
D ---------------------------------------|
A ---------------------------3333333333--|
D -0-000-000-000-0-555-555-5-------------|

Chorus
G ----------------------------------------|
D ----------------------------------------| 2x
A -5-----3-----11/333-5-----3-----11\333--|
D ---0-3---555----------0-3---555---------|

After Chorus
G ------------------|
D ------------------| 4x
A -5-----3----------|
D ---0-3---555\\\1--|

Verse              2x
Verse(with guitar) 1x
Chorus             2x
After Chorus       4x

Bridge
G -------------------------------------------|
D -------------------------------------------| 2x
A -------------------------------3333333333--|
D -0000000000000000-5555555555---------------|

Verse (with guitar) 1x
Chorus              4x

End
G -----------------------------------------|
D -----------------------------------------|
A -----------------------------------------|
D -12p10p0--12p10p0--12p10p0--12p10p00--0--|

Here it is
Such an heavy song
Have Fun
Greetings ClosedRoad
Suggest correction
comments
print report bad tab
19 comments total. Showing first comments.
0 reply
Nickman3000 10 wrote on April 21 2007, 07:07 am

Thank god! Someone that isn't completely tone deaf!!! That lower C is correct as well and a dropped C Tuning will stuff up the verse. Speaking of the verse, only one problem i picked up, i'm not sure of the:
G|---------------------------------------|
D|---------------------------------------|
A|----------------------------333-333-3--|
D|-0-000-000-000304-555-555-5------------|
^^^
I Believe it's more like:
G|---------------------------------------|
D|---------------------------------------|
A|----------------------------333-333-3--|
D|-0-000-000-000353-555-555-5------------|
^^^
and the rythum out (i'm aware how freaky hard it is to write rythum on tabs) but you'd have to be some kind of retard to not figure out the rythum with a guitar.

I sincerely hope more people pick up on this great tab, and for the record, i actually don't like Nickelback at all (hate them!) but my guitarist forced me to learn this and suppose it's not too bad. Cheers for the great tab man!!! :D

+2 reply
Bass Pants 1,920 wrote on May 21 2007, 06:08 pm

good good, much better than the others

+2 reply
bigal09 10 wrote on June 12 2007, 02:06 pm

Great tabs dude!

guest
You may want to rate the tab now too:
select rating
Please do not post tabs as comments. Select "correction" instead!