Oops, an error
Loading. Please wait.
We have Chord Pro version of Animals.
It's the closest thing you can get to the original song and it has interactive parts. Check out the tab »
×
14,104 views 9 this week
4 commentsread comments
1 2 3 4 5
x 7
add to favorites
launch autoscroll
font size
0
reset
how to read this tab
guitar tuner
backing track
0:00
0:00
Autoscroll
slow
fast
+/-
esc
set tempo
stop
Author
Difficulty
Tuning
novice
D A D G B E
Artist: Nickelback
Song: Animals
Album: All the Right Reasons
Me: Hawk987 (Jake)

Tuning: Drop D

Intro:
e|---------------------------------------------------------------------------|
B|---------------------------------------------------------------------------|
G|-7-7---5-------------------------------------------------------------------|
D|-7-7-3-5-5-5-5-------------------------------------------------------------|x4
A|-5-5-3-3-5-5-5-------------------------------------------------------------|
D|-0-0-3---5-5-5-------------------------------------------------------------|

Into 2:
e|---------------------------------------------------------------------------|
B|---------------------------------------------------------------------------|
G|-7-7---5-------3-3/5-5/7--------5------------------------------------------|
D|-7-7-3-5-5-5-5-3-3/5-5/7--0-0-3-5-5-5-5------------------------------------|x2
A|-5-5-3-3-5-5-5-1-1/3-3/5--0-0-3-3-5-5-5------------------------------------|
D|-0-0-3---5-5-5------------0-0-3---5-5-5------------------------------------|

Verse 1:

no guitar until "I'm drivin past your house"

e|---------------------------------------------------------------------------|
B|---------------------------------------------------------------------------|
G|-------------------------------------------5-5--5-5-5----------------------|
D|-0-0--0-0-0--0-0-0--0-0-0--0h5-5-5--5-5-5--5-5--5-5-5----------------------|x2
A|-0-0--0-0-0--0-0-0--0-0-0--0h5-5-5--5-5-5--3-3--3-3-3----------------------|
D|-0-0--0-0-0--0-0-0--0-0-0--0h5-5-5--5-5-5----------------------------------|

Chorus:
e|---------------------------------------------------------------------------|
B|---------------------------------------------------------------------------|
G|-7-7---5--------3-3/5-5/7--7-7---5-------3-3/5-5/7-------------------------|
D|-7-7-3-5-5-5-5--3-3/5-5/7--7-7-3-5-5-5-5-3-3/5-5/7-------------------------|x2
A|-5-5-3-3-5-5-5--1-1/3-3/5--5-5-3-3-5-5-5-1-1/3-3/5-------------------------|
D|-0-0-3---5-5-5-------------0-0-3---5-5-5-----------------------------------|

Post chorus:
e|---------------------------------------------------------------------------|
B|---------------------------------------------------------------------------|
G|-7-7---5-------------------------------------------------------------------|
D|-7-7-3-5-5-5-5-------------------------------------------------------------|x4
A|-5-5-3-3-5-5-5-------------------------------------------------------------|
D|-0-0-3---5-5-5-------------------------------------------------------------|

Verse 2

no guitar until "By Now..."

(Fade in a little before on D5)

e|---------------------------------------------------------------------------|
B|---------------------------------------------------------------------------|
G|-------------------------------------------5-5--5-5-5----------------------|
D|-0-0--0-0-0--0-0-0--0-0-0--0h5-5-5--5-5-5--5-5--5-5-5----------------------|x2
A|-0-0--0-0-0--0-0-0--0-0-0--0h5-5-5--5-5-5--3-3--3-3-3----------------------|
D|-0-0--0-0-0--0-0-0--0-0-0--0h5-5-5--5-5-5----------------------------------|

Chorus:
e|---------------------------------------------------------------------------|
B|---------------------------------------------------------------------------|
G|-7-7---5--------3-3/5-5/7--7-7---5-------3-3/5-5/7-------------------------|
D|-7-7-3-5-5-5-5--3-3/5-5/7--7-7-3-5-5-5-5-3-3/5-5/7-------------------------|x2
A|-5-5-3-3-5-5-5--1-1/3-3/5--5-5-3-3-5-5-5-1-1/3-3/5-------------------------|
D|-0-0-3---5-5-5-------------0-0-3---5-5-5-----------------------------------|

Post chorus:
e|---------------------------------------------------------------------------|
B|---------------------------------------------------------------------------|
G|-7-7---5-------------------------------------------------------------------|
D|-7-7-3-5-5-5-5-------------------------------------------------------------|x4
A|-5-5-3-3-5-5-5-------------------------------------------------------------|
D|-0-0-3---5-5-5-------------------------------------------------------------|

Bridge

no guitar until "Oh Please"

(Fade in a little before on D5)

e|---------------------------------------------------------------------------|
B|---------------------------------------------------------------------------|
G|-------------------------------------------5-5--5-5-5----------------------|
D|-0-0--0-0-0--0-0-0--0-0-0--0h5-5-5--5-5-5--5-5--5-5-5----------------------|x2
A|-0-0--0-0-0--0-0-0--0-0-0--0h5-5-5--5-5-5--3-3--3-3-3----------------------|
D|-0-0--0-0-0--0-0-0--0-0-0--0h5-5-5--5-5-5----------------------------------|

Chorus:
e|---------------------------------------------------------------------------|
B|---------------------------------------------------------------------------|
G|-7-7---5--------3-3/5-5/7--7-7---5-------3-3/5-5/7-------------------------|
D|-7-7-3-5-5-5-5--3-3/5-5/7--7-7-3-5-5-5-5-3-3/5-5/7-------------------------|x2
A|-5-5-3-3-5-5-5--1-1/3-3/5--5-5-3-3-5-5-5-1-1/3-3/5-------------------------|
D|-0-0-3---5-5-5-------------0-0-3---5-5-5-----------------------------------|

Ending

e|---------------------------------------------------------------------------|
B|---------------------------------------------------------------------------|
G|-7-7---5--------3-3/5-5/7--7-7---5-------3-3/5-5/7-------------------------|
D|-7-7-3-5-5-5-5--3-3/5-5/7--7-7-3-5-5-5-5-3-3/5-5/7-------------------------|x2
A|-5-5-3-3-5-5-5--1-1/3-3/5--5-5-3-3-5-5-5-1-1/3-3/5-------------------------|
D|-0-0-3---5-5-5-------------0-0-3---5-5-5-----------------------------------|

 [------------]x4
e|---------------------------------------------------------------------------|
B|---------------------------------------------------------------------------|
G|-------------------7-------------------------------------------------------|
D|-------------------7-------------------------------------------------------|
A|-------------------5-------------------------------------------------------|
D|-0-------/7--------0-------------------------------------------------------|
   ^
fast a lot
of times


For those of you keeping track, yes there's only three different riffs in the entire song. It's that easy.
Suggest correction
comments
print report bad tab
4 comments total. Showing first comments.
0 reply
guitfiddle4 10 Feb 10, 2006 05:22 PM

all most but check out jaames in the comments of version 2, he has it right

0 reply
C_Turton 31 Nov 20, 2006 12:01 AM

That's a bit cheeky. You list this track as being 'novice' level. At least you got your come-uppance through making a fair few mistakes in your tab.

0 reply
Fender_Bender14 10 Sep 18, 2008 02:51 PM

its a decent tab.

guest
You may want to rate the tab now too:
select rating
Wanna post a correction for this tab? Suggest correction