Oops, an error
Loading. Please wait.

Animals Bass Tab

version 5
version 5
895 views 1 this week
no commentswrite comment
1 2 3 4 5
please rate
add to favorites
launch autoscroll
font size
0
reset
guitar tuner
Autoscroll
slow
fast
+/-
esc
set tempo
stop
Help us to improve Ultimate-Guitar.com Take our survey!
×
Author
Tuning
D A D G B E
#----------------------------------PLEASE NOTE---------------------------------#
#This file is the author's own work and represents their interpretation of the #
#song. You may only use this file for private study, scholarship, or research. #
#------------------------------------------------------------------------------#

ANIMALS (Bassline)
As recorded by Nickleback



Transcribed by Gary Ramsey Drop D Tuning

 

 

Gtr I (D A D G) - 'Staff'


  Q=154
 4/4
  Gtr I
  W          W          W          W
|----------|----------|----------|------|
|----------|----------|----------|------|
|----------|----------|----------|------|
|----------|----------|----------|------|


  W          W          W          W
|----------|----------|----------|------|
|----------|----------|----------|------|
|----------|----------|----------|------|
|----------|----------|----------|------|


  E E E E E E E E   E E E E E  E  E  E    E E E E E E E E   E E Q  H
|-----------------|--------------------|------------------|-------------|
|-0---------------|--------------------|------------------|-------------|
|-----------3-----|--------------------|------------3-----|-------------|
|---0---3-------5-|-5-5---8-8-10-10-12-|-12-0---3-------5-|-5-5---------|


  E E E E E E E E   E E E E E  E  E  E    E E E E E E E E   E E Q  H
|-----------------|--------------------|------------------|-------------|
|-----------------|--------------------|------------------|-------------|
|-5---------3-----|--------------------|------------3-----|-------------|
|---0---3-------5-|-5-5---8-8-10-10-12-|-12-0---3-------5-|-5-5---------|


  E E E E E E E E   E E E E E E E E   E E E E E E E E   E E E E E E E E
|-----------------|-----------------|-----------------|-----------------|
|-----------------|-----------------|-----------------|-----------------|
|-----------------|-----------------|-----------------|-3-3---3-3-3---3-|
|-0-0---0-0-0---0-|-0-0---0-0-3-5-3-|-5-5---5-5-5---5-|-----------------|


  E E E E E E E E   E E E E E E E E   E E E E E E E E   E E E E E E E E
|-----------------|-----------------|-----------------|-----------------|
|-----------------|-----------------|-----------------|-----------------|
|-----------------|-----------------|-----------------|-3-3---3-3-3---3-|
|-0-0---0-0-0---0-|-0-0---0-0-3-5-3-|-5-5---5-5-5---5-|-----------------|


  Q  E E E E E E   E E E E E E E E   E E E E E E E E   E E E E E E E E
|----------------|-----------------|-----------------|-----------------|
|----------------|-----------------|-----------------|-----------------|
|----------------|-----------------|-----------------|-3-3---3-3-3---3-|
|-0----0-0-0---0-|-0-0---0-0-0---0-|-5-5---5-5-5---5-|-----------------|


  Q  E E E E E E   E E E E E E E E   E E E E E E E E   E E E E E E E E
|----------------|-----------------|-----------------|-----------------|
|----------------|-----------------|-----------------|-----------------|
|----------------|-----------------|-----------------|-3-3-3-3-3-3-3-3-|
|-0----0-0-0---0-|-0-0---0-0-0---0-|-5-5---5-5-5---5-|-----------------|


  E E E E E E E E   E E E E E  E  E  E    E E E E E E E E   E E E E E  E  E  E
|-----------------|--------------------|------------------|--------------------|
|-----------------|--------------------|------------------|--------------------|
|-5---------3-----|--------------------|------------3-----|--------------------|
|---0---3-------5-|-5-5---8-8-10-10-12-|-12-0---3-------5-|-5-5---8-8-10-10-12-|


   E E E E E E E E   E E E E E  E  E  E
|------------------|--------------------|
|------------------|--------------------|
|------------3-----|--------------------|
|-12-0---3-------5-|-5-5---8-8-10-10-12-|


   E E E E E E E E   E E E E E  E  E  E
|------------------|--------------------|
|------------------|--------------------|
|------------3-----|--------------------|
|-12-0---3-------5-|-5-5---8-8-10-10-12-|


   E E E E E E E E   E E Q  H      E E E E E E E E   E E Q  H
|------------------|-------------|-----------------|-------------|
|------------------|-------------|-----------------|-------------|
|------------3-----|-------------|-5---------3-----|-------------|
|-12-0---3-------5-|-5-5---------|---0---3-------5-|-5-5---------|


  E E E E E E E E   E E Q  H      E E E E E E E E   E E Q  H
|-----------------|-------------|-----------------|-------------|
|-----------------|-------------|-----------------|-------------|
|-5---------3-----|-------------|-5---------3-----|-------------|
|---0---3-------5-|-5-5---------|---0---3-------5-|-5-5---------|


  E E E E E E E E   E E E E E E E E   E E E E E E E E   E E E E E E E E
|-----------------|-----------------|-----------------|-----------------|
|-----------------|-----------------|-----------------|-----------------|
|-----------------|-----------------|-----------------|-3-3---3-3-3---3-|
|-0-0---0-0-0---0-|-0-0---0-0-3-5-3-|-5-5---5-5-5---5-|-----------------|


  E E E E E E E E   E E E E E E E E   E E E E E E E E   E E E E E E E E
|-----------------|-----------------|-----------------|-----------------|
|-----------------|-----------------|-----------------|-----------------|
|-----------------|-----------------|-----------------|-3-3---3-3-3---3-|
|-0-0---0-0-0---0-|-0-0---0-0-3-5-3-|-5-5---5-5-5---5-|-----------------|


  Q  E E E E E E   E E E E E E E E   E E E E E E E E   E E E E E E E E
|----------------|-----------------|-----------------|-----------------|
|----------------|-----------------|-----------------|-----------------|
|----------------|-----------------|-----------------|-3-3---3-3-3---3-|
|-0----0-0-0---0-|-0-0---0-0-0---0-|-5-5---5-5-5---5-|-----------------|


  Q  E E E E E E   E E E E E E E E   E E E E E E E E   E E E E E E E E
|----------------|-----------------|-----------------|-----------------|
|----------------|-----------------|-----------------|-----------------|
|----------------|-----------------|-----------------|-3-3-3-3-3-3-3-3-|
|-0----0-0-0---0-|-0-0---0-0-0---0-|-5-5---5-5-5---5-|-----------------|


  E E E E E E E E   E E E E E  E  E  E    E E E E E E E E   E E E E E  E  E  E
|-----------------|--------------------|------------------|--------------------|
|-----------------|--------------------|------------------|--------------------|
|-5---------3-----|--------------------|------------3-----|--------------------|
|---0---3-------5-|-5-5---8-8-10-10-12-|-12-0---3-------5-|-5-5---8-8-10-10-12-|


   E E E E E E E E   E E E E E  E  E  E
|------------------|--------------------|
|------------------|--------------------|
|------------3-----|--------------------|
|-12-0---3-------5-|-5-5---8-8-10-10-12-|


   E E E E E E E E   E E E E E  E  E  E
|------------------|--------------------|
|------------------|--------------------|
|------------3-----|--------------------|
|-12-0---3-------5-|-5-5---8-8-10-10-12-|


   E E E E E E E E   E E Q  H      E E E E E E E E   E E Q  H
|------------------|-------------|-----------------|-------------|
|------------------|-------------|-----------------|-------------|
|------------3-----|-------------|-5---------3-----|-------------|
|-12-0---3-------5-|-5-5---------|---0---3-------5-|-5-5---------|


  E E E E E E E E   E E Q  H      E E E E E E E E   E E Q  H
|-----------------|-------------|-----------------|-------------|
|-----------------|-------------|-----------------|-------------|
|-5---------3-----|-------------|-5---------3-----|-------------|
|---0---3-------5-|-5-5---------|---0---3-------5-|-5-5---------|


  E E E E E E E E   E E E E E E E E   E E E E E E E E   E E E E E E E E
|-----------------|-----------------|-----------------|-----------------|
|-----------------|-----------------|-----------------|-----------------|
|-----------------|-----------------|-----------------|-3-3-3-3-3-3-3-3-|
|-0-0-0-0-0-0-0-0-|-0-0-0-0-0-0-0-0-|-5-5-5-5-5-5-5-5-|-----------------|


  E E E E E E E E   E E E E E E E E   E E E E E E E E   E E E E E E E E
|-----------------|-----------------|-----------------|-----------------|
|-----------------|-----------------|-----------------|-----------------|
|-----------------|-----------------|-----------------|-3-3-3-3-3-3-3-3-|
|-0-0-0-0-0-0-0-0-|-0-0-0-0-0-0-0-0-|-5-5-5-5-5-5-5-5-|-----------------|


  Q  E E E E E E   E E E E E E E E   E E E E E E E E   E E E E E E E E
|----------------|-----------------|-----------------|-----------------|
|----------------|-----------------|-----------------|-----------------|
|----------------|-----------------|-----------------|-3-3---3-3-3---3-|
|-0----0-0-0---0-|-0-0---0-0-0---0-|-5-5---5-5-5---5-|-----------------|


  Q  E E E E E E   E E E E E E E E   E E E E E E E E   E E E E E E E E
|----------------|-----------------|-----------------|-----------------|
|----------------|-----------------|-----------------|-----------------|
|----------------|-----------------|-----------------|-3-3-3-3-3-3-3-3-|
|-0----0-0-0---0-|-0-0---0-0-0---0-|-5-5---5-5-5---5-|-----------------|


  E E E E E E E E   E E E E E  E  E  E    E E E E E E E E   E E E E E  E  E  E
|-----------------|--------------------|------------------|--------------------|
|-----------------|--------------------|------------------|--------------------|
|-5---------3-----|--------------------|------------3-----|--------------------|
|---0---3-------5-|-5-5---8-8-10-10-12-|-12-0---3-------5-|-5-5---8-8-10-10-12-|


   E E E E E E E E   E E E E E  E  E  E
|------------------|--------------------|
|------------------|--------------------|
|------------3-----|--------------------|
|-12-0---3-------5-|-5-5---8-8-10-10-12-|


   E E E E E E E E   E E E E E  E  E  E
|------------------|--------------------|
|------------------|--------------------|
|------------3-----|--------------------|
|-12-0---3-------5-|-5-5---8-8-10-10-12-|


   E E E E E E E E   E E E E E  E  E  E
|------------------|--------------------|
|------------------|--------------------|
|------------3-----|--------------------|
|-12-0---3-------5-|-5-5---8-8-10-10-12-|


   E E E E E E E E   E E E E E  E  E  E
|------------------|--------------------|
|------------------|--------------------|
|------------3-----|--------------------|
|-12-0---3-------5-|-5-5---8-8-10-10-12-|


   E E E E E E E E   E E E E E  E  E  E
|------------------|--------------------|
|------------------|--------------------|
|------------3-----|--------------------|
|-12-0---3-------5-|-5-5---8-8-10-10-12-|


   E E E E E E E E   E E E E E  E  E  E
|------------------|--------------------|
|------------------|--------------------|
|------------3-----|--------------------|
|-12-0---3-------5-|-5-5---8-8-10-10-12-|


  S S S S S S S S S S S S S S S S   S S S S S S S S S S S S S S S S
|---------------------------------|---------------------------------|
|---------------------------------|---------------------------------|
|---------------------------------|---------------------------------|
|-0-0-0-0-0-0-0-0-0-0-0-0-0-0-0-0-|-0-0-0-0-0-0-0-0-0-0-0-0-0-0-0-0-|


  e. S Q  H
|--------------*|
|--------------*|
|--------------*|
|-0------------*|




--------------------------------------------------------------------------------


Duration Legend
---------------
W - whole; H - half; Q - quarter; E - 8th; S - 16th; T - 32nd; X - 64th; a - acciaccatura
+ - note tied to previous; . - note dotted; .. - note double dotted
Uncapitalized letters represent notes that are staccato (1/2 duration)
Irregular groupings are notated above the duration line
Duration letters will always appear directly above the note/fret number it represents the
duration for.  Duration letters with no fret number below them represent rests.  Multi-
bar rests are notated in the form Wxn, where n is the number of bars to rest for.  Low
melody durations appear below the staff

Tablature Legend
----------------
 h   - hammer-on
 p   - pull-off
 b   - bend
 pb  - pre-bend
 r   - bend release (if no number after the r, then release immediately)
 /\  - slide into or out of (from/to "nowhere")
 s   - legato slide
 S   - shift slide
 - natural harmonic
[n]  - artificial harmonic
n(n) - tapped harmonic
 ~   - vibrato
 tr  - trill
 T   - tap
 TP  - trem. picking
 PM  - palm muting
\n/  - tremolo bar dip; n = amount to dip
 \n  - tremolo bar down
 n/  - tremolo bar up
/n\  - tremolo bar inverted dip
 =   - hold bend; also acts as connecting device for hammers/pulls
 <> - volume swell (louder/softer)
 x   - on rhythm slash represents muted slash
 o   - on rhythm slash represents single note slash

Misc Legend
-----------
 |  - bar
||  - double bar
||o - repeat start
o|| - repeat end
*|  - double bar (ending)
 :  - bar (freetime)
 $  - Segno
 &  - Coda
Tempo markers -  = BPM(8/16=s8/s16), where s8 = swing 8ths, s16 = swing 16ths



--------------------------------------------------------------------------------

** Generated using Power Tab Editor by Brad Larsen: The Official Power Tab Web Site
Suggest correction
Give kudos to tab author, rate the tab!
1 2 3 4 5
comments
print report bad tab
guest
You may want to rate the tab now too:
select rating
Wanna post a correction for this tab? Suggest correction