Oops, an error
Loading. Please wait.

Animals Bass Tab

version 6
version 6
366 views 3 this week
no commentswrite comment
1 2 3 4 5
please rate
add to favorites
launch autoscroll
font size
0
reset
guitar tuner
Autoscroll
slow
fast
+/-
esc
set tempo
stop
Help us to improve Ultimate-Guitar.com Take our survey!
×
Author
Difficulty
-----------------------------------------------------------------------------
                             Animals - Nickelback
-----------------------------------------------------------------------------

Tabbed by: Country Bass
E-mail: aaron.white8@education.nsw.gov.au

Tuning: Standard

Intro

The song starts with just guitar and drums
Guitar 2 and bass enter at 0:12

G|----------------------------------------------|
D|----------------------------------------------|
A|--5-5--3-3-------------------5-5--3-3---------| x2
E|-----------5-5-5--1-1-1-3-3------------5-5-5--|

Verse

G|---------------------------------------------------------------|
D|---------------------------------------------------------------|
A|-----------------------------------------------3-3--3-3-3-3-3--| x4
E|--5-5--5-5-5--5-5-5--5-5-5-5-5-5-3-3--3-3-3--3-----------------|

Chorus

G|-----------------------------|
D|-----------------------------|
A|--5-5--3-3-------------------| x4
E|-----------5-5-5--1-1-1-3-3--|

G|------------------------------------------------|
D|------------------------------------------------|
A|--5-5--3-3-------------------5-5--3-3-----------| x2
E|-----------5-5-5-----------------------5-5-5----|

Chorus 3

G|-----------------------------|
D|-----------------------------|
A|--5-5--3-3-------------------| x8
E|-----------5-5-5--1-1-1-3-3--|

G|------------------------------|
D|------------------------------|
A|------------------------------|
E|--555555555555555555555555-3--|



Playing Order

Intro
Verse
Chorus
Verse
Chorus
Verse
Chorus 3



Have Fun

| /  slide up
| \  slide down
| h  hammer-on
| p  pull-off
| ~  vibrato
| +  harmonic
| x  Mute note
=============================================================================
Suggest correction
Give kudos to tab author, rate the tab!
1 2 3 4 5
comments
print report bad tab
guest
You may want to rate the tab now too:
select rating
Please do not post tabs as comments. Select "correction" instead!