Oops, an error
Loading. Please wait.

Because Of You Bass Tab

version 2
version 2

Whole song

Interactive

1,254 views 3 this week
no commentswrite comment
1 2 3 4 5
please rate
add to favorites
launch autoscroll
font size
0
reset
guitar tuner
Autoscroll
slow
fast
+/-
esc
set tempo
stop
Help us to improve Ultimate-Guitar.com Take our survey!
×
Contributor
Tuning
DragonHUL 151
C G C F A D
#----------------------------------PLEASE NOTE---------------------------------#
#This file is the author's own work and represents their interpretation of the #
#song. You may only use this file for private study, scholarship, or research. #
#------------------------------------------------------------------------------#

BECAUSE OF YOU (Bassline)
As recorded by Nickelback
(From the 2003 Album THE LONG ROAD)

Transcribed by DragonHUL
with help from a tab on the site found by Andrew Zara

Words by Chad Kroeger Music by Nickelback
Arranged by Nickelback

Gtr I (C G C F A) - 'Play with Pick'

 Intro
  Q=126
 4/4
  Gtr I
  Wx5
|--------|
|--------|
|--------|
|--------|
|--------|


  Q  Q  Q  Q    Q  Q  Q  Q    Q  Q  Q  Q    Q  Q  H
|-------------|-------------|-------------|------------||
|-------------|-------------|-------------|------------||
|-------------|-------------|-------------|------------||
|-------------|-------------|-------------|------------||
|-0--0--0--0--|-0--0--0--0--|-0--0--0--0--|-0--0-------||


   Pre-Verse
    $
    S E E. E S E E. E   S E E S S S S S S S S S S S
||--------------------|------------------------------||
||o-------------------|-----------------------------o||
||--------------------|------------------------------||
||o-------------------|-----------0h5p0-------------o||
||--0-0-3--0-0-0-3--0-|-0-0-3-0h3-------6p0h3p0h3h5--||


 Verse
  e. e. e e. e. e   e. e. e e. e. e   e. e. e e. e. e   e. e. e e. E. E
|-----------------|-----------------|-----------------|------------------|
|-----------------|-----------------|-----------------|------------------|
|-----------------|-----------------|-----------------|------------------|
|-----------------|-----------------|-----------------|------------------|
|-0--0--0-0--0--0-|-0--0--0-0--0--0-|-0--0--0-0--0--0-|-0--0--0-0--3--3--|


  $$
  e. e. e e. e. e   e. e. e e. e. e   e. e. e e. e. e   e. e. e e. E E.
|-----------------|-----------------|-----------------|------------------||
|-----------------|-----------------|-----------------|------------------||
|-----------------|-----------------|-----------------|------------------||
|-----------------|-----------------|-----------------|------------------||
|-0--0--0-0--0--0-|-0--0--0-0--0--0-|-0--0--0-0--0--0-|-0--0--0-0--------||


   Pre-Chorus
    S E E. E S E E. E   S E E S S S S S S S S S S S
||--------------------|------------------------------||
||o-------------------|-----------------------------o||
||--------------------|------------------------------||
||o-------------------|-----------0h5p0-------------o||
||--0-0-3--0-0-0-3--0-|-0-0-3-0h3-------6p0h3p0h3h5--||


   Chorus
    Q=123
                                                           D.S.
    E. E. E H      E. E. E H      E. E. E H      E. E. E H
||---------------|--------------|--------------|------------||---|
||o--------------|--------------|--------------|-----------o||---|
||---------------|--------------|--------------|------------||---|
||o--------------|--------------|--------------|-----------o||---|
||--8--8--8-8----|-8--8--8-8----|-5--5--5-5----|-3--3--3-3--||---|


   Guitar Break
    Q=126
                           (2nd time on D.S.S) To Coda
    S E E. E S E E. E   S E E S S S S S S S S S S S
||--------------------|------------------------------||
||o-------------------|-----------------------------o||
||--------------------|------------------------------||
||o-------------------|-----------0h5p0-------------o||
||--0-0-3--0-0-0-3--0-|-0-0-3-0h3-------6p0h3p0h3h5--||


 Interlude
 Q=121
  Wx4
|---------|
|---------|
|---------|
|---------|
|---------|


 Breakdown
  E. E. E  E. E. E   E. E. E  E. E. E   E. E. E  E. E. E   E. E. E e. e. e
|------------------|------------------|------------------|------------------|
|------------------|------------------|------------------|------------------|
|------------------|------------------|------------------|------------------|
|---------/3--4--5-|---------/3--4--5-|---------/3--4--5-|------------------|
|-0--2--3----------|-0--2--3----------|-0--2--3----------|-0--2--3-5--3--2--|


 Bridge
                                                            2/4
  E. E. E  E. E. E   E. E. E S S S E. E   E. E. E  E. E. E   e. e. e
|------------------|--------------------|------------------|---------|
|------------------|--------------------|------------------|---------|
|------------------|--------------------|------------------|---------|
|---------/5--3--5-|---------------3--5-|---------/5--3--5-|---------|
|-0--2--3----------|-0--2--3-0-0-0------|-0--2--3----------|-0--2--3-|


 4/4
  W          W
|----------|------||
|----------|------||
|----------|------||
|----------|------||
|----------|------||


 Verse
  Q=126
               D.S.S. al Coda
  Wx3          Q  Q.   E. E.
|------------|---------------||
|------------|---------------||
|------------|---------------||
|------------|---------------||
|------------|---------3--3--||


   Outro
    &
    S S S S S S S S S S S S S S S S   S S S S S S S S S S S S S S S S
||----------------------------------|-----------------------------------||
||o---------------------------------|----------------------------------o||
||----------------------------------|-----------------------------------||
||o---------------------------------|----------------------------------o||
||--3-0-0-3-0-0-3-0-3-0-0-3-0-0-3-0-|-3-0-0-3-0-0-3-0-3-3-3-3-3-3-3-3---||


            2/4
  W          H
|----------|------*|
|----------|------*|
|----------|------*|
|----------|------*|
|----------|------*|



Duration Legend
---------------
W - whole; H - half; Q - quarter; E - 8th; S - 16th; T - 32nd; X - 64th; a - acciaccatura
+ - note tied to previous; . - note dotted; .. - note double dotted
Uncapitalized letters represent notes that are staccato (1/2 duration)
Irregular groupings are notated above the duration line
Duration letters will always appear directly above the note/fret number it represents the
duration for.  Duration letters with no fret number below them represent rests.  Multi-
bar rests are notated in the form Wxn, where n is the number of bars to rest for.  Low
melody durations appear below the staff

Tablature Legend
----------------
 h   - hammer-on
 p   - pull-off
 b   - bend
 pb  - pre-bend
 r   - bend release (if no number after the r, then release immediately)
 /\  - slide into or out of (from/to "nowhere")
 s   - legato slide
 S   - shift slide
 - natural harmonic
[n]  - artificial harmonic
n(n) - tapped harmonic
 ~   - vibrato
 tr  - trill
 T   - tap
 TP  - trem. picking
 PM  - palm muting
\n/  - tremolo bar dip; n = amount to dip
 \n  - tremolo bar down
 n/  - tremolo bar up
/n\  - tremolo bar inverted dip
 =   - hold bend; also acts as connecting device for hammers/pulls
 <> - volume swell (louder/softer)
 x   - on rhythm slash represents muted slash
 o   - on rhythm slash represents single note slash

Misc Legend
-----------
 |  - bar
||  - double bar
||o - repeat start
o|| - repeat end
*|  - double bar (ending)
 :  - bar (freetime)
 $  - Segno
 &  - Coda
Tempo markers -  = BPM(8/16=s8/s16), where s8 = swing 8ths, s16 = swing 16ths


** Generated using Power Tab Editor by Brad Larsen: The Official Power Tab Web Site
comments
We did not receive enough feedback on this tab! Please rate:
print report bad tab
1 2 3 4 5
I want to post or [tab]
guest
You may want to rate the tab now too:
select rating
Please do not post tabs as comments. Select "correction" instead!