Oops, an error
Loading. Please wait.

Because Of You Tab

version 4
version 4

Whole song

Interactive

663 views 3 this week
no commentswrite comment
1 2 3 4 5
3 more votes to show rating
add to favorites
launch autoscroll
font size
0
reset
how to read this tab
guitar tuner
Autoscroll
slow
fast
+/-
esc
set tempo
stop
Help us to improve Ultimate-Guitar.com Take our survey!
×
Tuning
C G C F A D
intro 1

E---------------------------------------------------------------|
B---------------------------------------------------------------|
G---------------------------------------------------------------|
D---------------------------------------------------------------|
A-----------------------------------------------5-0-------------|
E------0-0-0-3-0---0-0-0-3-0---0-0-0-3-0---0-3-5----3-0-3-0-3-5-|

intro 2

E------------------------------------------------------|
B------------------------------------------------------|
G------------------------------------------------------|
D------------------------------------------------------|
A--------------------------------------5-0-------------|
E------0-0-3-0--0-0-3-0--0-0-3-0--0-3-5----3-0-3-0-3-5-|

vs.

E----------------------------------------------------------------------------------------|
B----------------------------------------------------------------------------------------|
G----------------------------------------------------------------------------------------|
D----------------------------------------------------------------------------------------|
A----------------------------------------------------------------------------------------|
E------8--0-0-0-(1)-3-0-0--3-3-3--0-0-0-(1)-3-0-0--0-0-0-(1)-3-0-0--0-0-0 (1)-3-0-0--3-5-|

chorus

E--------------------------------------------------------------------------------------|
B--------------------------------------------------------------------------------------|
G--------------------------------------------------------------------------------------|
D--------------------------------------------------------------------------------------|
A--------------------------------------------------------------------------------------|
E------8-8-8-8-8-8-8-8-5-5-5-5-10-10-10-10--8-8-8-8-8-8-8-8-5-5-5-5-10-10-10-10-----11-|

intro
vs
chorus

Bridge

E--------------------------------------------------------------------|
B--------------------------------------------------------------------|
G--------------------------------------------------------------------|
D--------------------------------------------------------------7-5-7-|
A------------3-4-5-------3-4-5--------3-4-5-------3-4-5--------5-3-5-|
E------0-2-3-------0-2-3-------0-2-3--------0-2-3--------0-2-3-------|

ending

E-------------------------------------|
B-------------------------------------|
G-------------------------------------|
D-------------------------------------|
A----------------------5--------------|
E------0-0-0-3-0--0-3-4---4-3-0-3-0-3-|
Suggest correction
Give kudos to tab author, rate the tab!
1 2 3 4 5
comments
print report bad tab
guest
You may want to rate the tab now too:
select rating
Wanna post a correction for this tab? Suggest correction