Oops, an error
Loading. Please wait.

Believe It Or Not Bass Tab

version 2
version 2

Whole song

Interactive

462 views 1 this week
no commentswrite comment
1 2 3 4 5
3 more votes to show rating
add to favorites
launch autoscroll
font size
0
reset
guitar tuner
Autoscroll
slow
fast
+/-
esc
set tempo
stop
Help us to improve Ultimate-Guitar.com Take our survey!
×
Author
Difficulty
novice
Verse
|-------------------------------------------------------|
|-0-0-0-0-0--0-0------0-0-0-0-0-------------------------|
|----------------------------------------1-1-1----------|
|------------------------------------------------3-3-3--| x 4

Pre-Chorus
|--------------------------------------------------------------------|
|--------------------------------------------------------------------|
|-1-1-1-1-1-1-1-1-------------------1-1-1-1-1-1-1-1--3-3-3-3-3-3-3-3-|
|-----------------3-3-3-3-3-3-3-3-3----------------------------------|

Chorus
|-------------------------------------------------|
|-0-0--0-0----------------0-0--0-0----------------|
|-------------1-1--1-1-1-------------3-3---3-3-3--|
|-------------------------------------------------| x 2 then Pre-Chorus once
 2nd Chorus play this 4 times

Interlude - After three measures of the acoustic guitar play
|-3------------0-------3----------5--|
|----------3-------------------3-----|
|------------------------------------|
|------------------------------------|
then chorus notes during solo

Then: Verse x4
      Chorus x4
      Pre-Chorus x1
      Verse x1 for outro

Suggest correction
Give kudos to tab author, rate the tab!
1 2 3 4 5
comments
print report bad tab
guest
You may want to rate the tab now too:
select rating
Wanna post a correction for this tab? Suggest correction