Oops, an error
Loading. Please wait.

Burn It To The Ground Tab

version 3
version 3

Whole song

Interactive

36,764 views 12 this week
6 commentsread comments
1 2 3 4 5
x 7
add to favorites
launch autoscroll
font size
0
reset
how to read this tab
guitar tuner
Autoscroll
slow
fast
+/-
esc
set tempo
stop
Help us to improve Ultimate-Guitar.com Take our survey!
×
Author
Difficulty
Tuning
novice
B E A D F# B
Burn It To The Ground
Nickelback
Dark Horse (2008)

Burn It To The Ground:  written by Chad Kroeger and Nickelback

NOTE: I could not figure out the solo, but the rest is there.
NOTE: This can be played on a 6 string by eliminating the high "e" string,
thus, giving you B-Tuning

GTR I - Standard Tuning 7-String (e,B,G,D,A,E,B)
GTR II - Standard Tuning 7-String (e,B,G,D,A,E,B)

Intro

  GTR I
e|-------------------------------------|-------------------------------------|
B|-------------------------------------|-------------------------------------|
G|-------------------------------------|-------------------------------------|
D|-------------------------------------|-------------------------------------|
A|-------------------------------------|-------------------------------------|
E|-------------------------------------|-------------------------10-------12-|
B|--0-----0-15p-0--0-12~----0-15p-0--0-|-12~----0-15p-0--0-10h12----12p10----|

  GTR I
e|-------------------------------------|-------------------------------------|
B|-------------------------------------|-------------------------------------|
G|-------------------------------------|-------------------------------------|
D|-------------------------------------|--------------------------7----------|
A|-------------------------------------|--------------------7h-9-----9p-7\-5-|
E|-------------------------------------|-------------------------------------|
B|--0-----0-15p-0--0-12~----0-15p-0--0-|-12~----0-15p-0--0-------------------|
 |
 |GTR II
e|-------------------------------------|-------------------------------------|
B|-------------------------------------|-------------------------------------|
G|-------------------------------------|-------------------------------------|
D|-------------------------------------|--------------------------7----------|
A|-------------------------------------|--------------------7h-9-----9p-7\-5-|
E|-------------------------------------|-------------------------------------|
B|-------------------------------------|-------------------------------------|

  GTR I,II
e|-------------------------------------|-------------------------------------|
B|-------------------------------------|-------------------------------------|
G|-------------------------------------|-------------------------------------|
G|-------------------------------------|-------------------------------------|
G|-------------------------------------|-------------------------------------|
E|-------------------------------------|-------------------------10-------12-|
B|--0-----0-15p-0--0-12~----0-15p-0--0-|-12~----0-15p-0--0-10h12----12p10----|

  GTR I,II
e|-------------------------------------|-------------------------------------|
B|-------------------------------------|-------------------------------------|
G|-------------------------------------|-------------------------------------|
D|-------------------------------------|--------------------------7----------|
A|-------------------------------------|--------------------7h-9-----9p-7\-5-|
E|-------------------------------------|-------------------------------------|
B|--0-----0-15p-0--0-12~----0-15p-0--0-|-12~----0-15p-0--0-------------------|

  GTR I,II
e|-------------------------------------|-------------------------------------|
B|-------------------------------------|-------------------------------------|
G|-------------------------------------|-------------------------------------|
D|-------------------------------------|-------------------------------------|
A|-------------------------------------|-------------------------------------|
E|-------------------------------------|-------------------12p10----12p10/14-|
B|--0-----0--0h10h12--0-----0--0h10h12-|--0-----0--0h10h12--------0----------|
          .                 .                   .                 .

  GTR I,II
e|-------------------------------------|-------------------------------------|
B|-------------------------------------|-------------------------------------|
G|-------------------------------------|-------------------------------------|
D|-------------------------------------|-------------------------------------|
A|-------------------------------------|-------------------------------------|
E|-------------------------------------|-------------------/5----------------|
B|--0-----0--0h10h12--0-----0--0h10h12-|--0-----0--0h10h12-----5--4--3--2--0-|
          .                 .                   .              .  .  .  . 

Verse

  GTR I,II
e|-------------------------------------|-------------------------------------|
B|-------------------------------------|-------------------------------------|
G|-------------------------------------|-------------------------------------|
G|-------------------------------------|-------------------------------------|
G|-------------------------------------|-------------------------------------|
E|-------------------------------------|-------------------------10-------12-|
B|-------------------12~---------------|-12~---------------10h12----12p10----|

  GTR I,II
e|-------------------------------------|-------------------------------------|
B|-------------------------------------|-------------------------------------|
G|-------------------------------------|-------------------------------------|
D|-------------------------------------|-------------------------------------|
A|-------------------------------------|-------------------------------------|
E|-------------------------------------|-------------------12p10----12p10/14-|
B|--0-----0--0h10h12--0-----0--0h10h12-|--0-----0--0h10h12--------0----------|
          .                 .                   .                 .

  GTR I,II
e|-------------------------------------|-------------------------------------|
B|-------------------------------------|-------------------------------------|
G|-------------------------------------|-------------------------------------|
G|-------------------------------------|-------------------------------------|
G|-------------------------------------|-------------------------------------|
E|-------------------------------------|--------------------------5----------|
B|--0----------------12~---------------|-12~----------------5h-7-----7p-5\-3-|

  GTR I,II                                                   PH.      PH.
e|-------------------------------------|-------------------------------------|
B|-------------------------------------|-------------------------------------|
G|-------------------------------------|-------------------------------------|
D|-------------------------------------|-------------------------------------|
A|-------------------------------------|-------------------------------------|
E|-------------------------------------|-------------------------------------|
B|--0-----0--0h10h12--0-----0--0h10h12-|--0-----0--0h10h12--5b6r5-3--5b6r5-3-|
          .                 .                   .                  

  GTR I,II
e|-------------------------------------|-------------------------------------|
B|-------------------------------------|-------------------------------------|
G|-------------------------------------|-------------------------------------|
G|-------------------------------------|-------------------------------------|
G|-------------------------------------|-------------------------------------|
E|-------------------------------------|-------------------------10-------12-|
B|--0----------------12~---------------|-12~---------------10h12----12p10----|

  GTR I,II
e|-------------------------------------|-------------------------------------|
B|-------------------------------------|-------------------------------------|
G|-------------------------------------|-------------------------------------|
D|-------------------------------------|-------------------------------------|
A|-------------------------------------|-------------------------------------|
E|-------------------------------------|-------------------12p10----12p10/14-|
B|--0-----0--0h10h12--0-----0--0h10h12-|--0-----0--0h10h12--------0----------|
          .                 .                   .                 .

  GTR I,II
e|-------------------------------------|-------------------------------------|
B|-------------------------------------|-------------------------------------|
G|-------------------------------------|-------------------------------------|
G|-------------------------------------|-------------------------------------|
G|-------------------------------------|-------------------------------------|
E|-------------------------------------|--------------------------5----------|
B|--0----------------12~---------------|-12~----------------5h-7-----7p-5\-3-|

  GTR I,II                                                   PH.      PH.
e|-------------------------------------|-------------------------------------|
B|-------------------------------------|-------------------------------------|
G|-------------------------------------|-------------------------------------|
D|-------------------------------------|-------------------------------------|
A|-------------------------------------|-------------------------------------|
E|-------------------------------------|-------------------------------------|
B|--0-----0--0h10h12--0-----0--0h10h12-|--0-----0--0h10h12--5b6r5-3--5b6r5-3-|
          .                 .                   .                  

Chorus

  GTR I,II
e|-------------------------------------|-------------------------------------|
B|-------------------------------------|-------------------------------------|
G|--4--4--4--4--4--4--4--4--4--4--4--4-|--4--4--4--4--4--4--4--4--4--4--4--4-|
D|--4--4--4--4--4--4--4--4--4--4--4--4-|--4--4--4--4--4--4--4--4--4--4--4--4-|
A|--2--2--2--2--2--2--2--2--2--2--2--2-|--2--2--2--2--2--2--2--2--2--2--2--2-|
E|-------------------------------------|-------------------------------------|
B|-------------------------------------|-------------------------------------|

  GTR I,II
e|-------------------------------------|-------------------------------------|
B|-------------------------------------|-------------------------------------|
G|--2--2--2--2--2--2--2--2--2--2--2--2-|--2--2--2--2--2--2--2--2--2--2--2--2-|
D|--2--2--2--2--2--2--2--2--2--2--2--2-|--2--2--2--2--2--2--2--2--2--2--2--2-|
A|--0--0--0--0--0--0--0--0--0--0--0--0-|--0--0--0--0--0--0--0--0--0--0--0--0-|
E|-------------------------------------|-------------------------------------|
B|-------------------------------------|-------------------------------------|

  GTR I,II
e|-------------------------------------|-------------------------------------|
B|-------------------------------------|-------------------------------------|
G|-------------------------------------|-------------------------------------|
D|--2--2--2--2--2--2--2--2--2--2--2--2-|-------------------------------------|
A|--2--2--2--2--2--2--2--2--2--2--2--2-|--5--5--5--5--5--5-------------------|
E|--0--0--0--0--0--0--0--0--0--0--0--0-|--5--5--5--5--5--5-------------------|
B|-------------------------------------|--3--3--3--3--3--3-10b---------------|

Post Chorus 1

  GTR I,II
e|-------------------------------------|-------------------------------------|
B|-------------------------------------|-------------------------------------|
G|-------------------------------------|-------------------------------------|
D|-------------------------------------|-------------------------------------|
A|-------------------------------------|-------------------------------------|
E|-------------------------------------|-------------------12p10----12p10/14-|
B|--0-----0--0h10h12--0-----0--0h10h12-|--0-----0--0h10h12--------0----------|
          .                 .                   .                 .

  GTR I,II
e|-------------------------------------|-------------------------------------|
B|-------------------------------------|-------------------------------------|
G|-------------------------------------|-------------------------------------|
D|-------------------------------------|-------------------------------------|
A|-------------------------------------|-------------------------------------|
E|-------------------------------------|-------------------/5----------------|
B|--0-----0--0h10h12--0-----0--0h10h12-|--0-----0--0h10h12-----5--4--3--2--0-|
          .                 .                   .              .  .  .  . 

Verse

  GTR I,II
e|-------------------------------------|-------------------------------------|
B|-------------------------------------|-------------------------------------|
G|-------------------------------------|-------------------------------------|
G|-------------------------------------|-------------------------------------|
G|-------------------------------------|-------------------------------------|
E|-------------------------------------|-------------------------10-------12-|
B|-------------------12~---------------|-12~---------------10h12----12p10----|

  GTR I,II
e|-------------------------------------|-------------------------------------|
B|-------------------------------------|-------------------------------------|
G|-------------------------------------|-------------------------------------|
D|-------------------------------------|-------------------------------------|
A|-------------------------------------|-------------------------------------|
E|-------------------------------------|-------------------12p10----12p10/14-|
B|--0-----0--0h10h12--0-----0--0h10h12-|--0-----0--0h10h12--------0----------|
          .                 .                   .                 .

  GTR I,II
e|-------------------------------------|-------------------------------------|
B|-------------------------------------|-------------------------------------|
G|-------------------------------------|-------------------------------------|
G|-------------------------------------|-------------------------------------|
G|-------------------------------------|-------------------------------------|
E|-------------------------------------|--------------------------5----------|
B|--0----------------12~---------------|-12~----------------5h-7-----7p-5\-3-|

  GTR I,II                                                   PH.      PH.
e|-------------------------------------|-------------------------------------|
B|-------------------------------------|-------------------------------------|
G|-------------------------------------|-------------------------------------|
D|-------------------------------------|-------------------------------------|
A|-------------------------------------|-------------------------------------|
E|-------------------------------------|-------------------------------------|
B|--0-----0--0h10h12--0-----0--0h10h12-|--0-----0--0h10h12--5b6r5-3--5b6r5-3-|
          .                 .                   .                  

  GTR I,II
e|-------------------------------------|-------------------------------------|
B|-------------------------------------|-------------------------------------|
G|-------------------------------------|-------------------------------------|
G|-------------------------------------|-------------------------------------|
G|-------------------------------------|-------------------------------------|
E|-------------------------------------|-------------------------10-------12-|
B|--0----------------12~---------------|-12~---------------10h12----12p10----|

  GTR I,II
e|-------------------------------------|-------------------------------------|
B|-------------------------------------|-------------------------------------|
G|-------------------------------------|-------------------------------------|
D|-------------------------------------|-------------------------------------|
A|-------------------------------------|-------------------------------------|
E|-------------------------------------|-------------------12p10----12p10/14-|
B|--0-----0--0h10h12--0-----0--0h10h12-|--0-----0--0h10h12--------0----------|
          .                 .                   .                 .

  GTR I,II
e|-------------------------------------|-------------------------------------|
B|-------------------------------------|-------------------------------------|
G|-------------------------------------|-------------------------------------|
G|-------------------------------------|-------------------------------------|
G|-------------------------------------|-------------------------------------|
E|-------------------------------------|--------------------------5----------|
B|--0----------------12~---------------|-12~----------------5h-7-----7p-5\-3-|

  GTR I,II                                                   PH.      PH.
e|-------------------------------------|-------------------------------------|
B|-------------------------------------|-------------------------------------|
G|-------------------------------------|-------------------------------------|
D|-------------------------------------|-------------------------------------|
A|-------------------------------------|-------------------------------------|
E|-------------------------------------|-------------------------------------|
B|--0-----0--0h10h12--0-----0--0h10h12-|--0-----0--0h10h12--5b6r5-3--5b6r5-3-|
          .                 .                   .                  

Chorus

  GTR I,II
e|-------------------------------------|-------------------------------------|
B|-------------------------------------|-------------------------------------|
G|--4--4--4--4--4--4--4--4--4--4--4--4-|--4--4--4--4--4--4--4--4--4--4--4--4-|
D|--4--4--4--4--4--4--4--4--4--4--4--4-|--4--4--4--4--4--4--4--4--4--4--4--4-|
A|--2--2--2--2--2--2--2--2--2--2--2--2-|--2--2--2--2--2--2--2--2--2--2--2--2-|
E|-------------------------------------|-------------------------------------|
B|-------------------------------------|-------------------------------------|

  GTR I,II
e|-------------------------------------|-------------------------------------|
B|-------------------------------------|-------------------------------------|
G|--2--2--2--2--2--2--2--2--2--2--2--2-|--2--2--2--2--2--2--2--2--2--2--2--2-|
D|--2--2--2--2--2--2--2--2--2--2--2--2-|--2--2--2--2--2--2--2--2--2--2--2--2-|
A|--0--0--0--0--0--0--0--0--0--0--0--0-|--0--0--0--0--0--0--0--0--0--0--0--0-|
E|-------------------------------------|-------------------------------------|
B|-------------------------------------|-------------------------------------|

  GTR I,II
e|-------------------------------------|-------------------------------------|
B|-------------------------------------|-------------------------------------|
G|-------------------------------------|-------------------------------------|
D|--2--2--2--2--2--2--2--2--2--2--2--2-|-------------------------------------|
A|--2--2--2--2--2--2--2--2--2--2--2--2-|--5--5--5--5--5--5-------------------|
E|--0--0--0--0--0--0--0--0--0--0--0--0-|--5--5--5--5--5--5-------------------|
B|-------------------------------------|--3--3--3--3--3--3-10b---------------|

Post Chorus 2

  GTR I,II
e|-------------------------------------|-------------------------------------|
B|-------------------------------------|-------------------------------------|
G|-------------------------------------|-------------------------------------|
D|-------------------------------------|-------------------------------------|
A|-------------------------------------|-------------------------------------|
E|-------------------------------------|-------------------12p10----12p10/14-|
B|--0-----0--0h10h12--0-----0--0h10h12-|--0-----0--0h10h12--------0----------|
          .                 .                   .                 .

  GTR I,II
e|-------------------------------------|-------------------------------------|
B|-------------------------------------|-------------------------------------|
G|-------------------------------------|-------------------------------------|
D|-------------------------------------|--------------------------7----------|
A|-------------------------------------|--------------------7h-9-----9p-7/-5-|
E|-------------------------------------|-------------------------------------|
B|--0-----0--0h10h12--0-----0--0h10h12-|--0-----0--0h10h12-------------------|
          .                 .                   .                   

Pre Solo

  GTR I,II
e|-------------------------------------|-------------------------------------|
B|-------------------------------------|-------------------------------------|
G|-------------------------------------|-------------------------------------|
D|-------------------------------------|-------------------------------------|
A|-------------------------------------|-----------------------------5-------|
E|--7--------5-------------------------|--------------------5----------------|
B|--------------------5--------3-------|--5--------7-------------------------|

  GTR I,II
e|-------------------------------------|-------------------------------------|
B|-------------------------------------|-------------------------------------|
G|-------------------------------------|-------------------------------------|
D|-------------------------------------|-------------------------------------|
A|-------------------------------------|-------------------------------------|
E|--7--------5-------------------------|--------------------5--Pickscrape----|
B|--------------------5--------3-------|--5--------7-----------Pickscrape----|

Solo

  GTR I
e|-------------------------------------|-------------------------------------|
B|-------------------------------------|-------------------------------------|
G|-------------------------------------|-------------------------------------|
D|-------------------------------------|-------------------------------------|
A|-------------------------------------|-------------------------------------|
E|-------------------------------------|-------------------------------------|
B|-------------------------------------|-------------------------------------|
 |
 |GTR II
e|-------------------------------------|-------------------------------------|
B|-------------------------------------|-------------------------------------|
G|-------------------------------------|-----------7-----------------9-------|
D|--9--------7-------------------------|-----------7--------7--------9-------|
A|--9--------7--------9--------8-------|--7--------5--------7--------7-------|
E|--7-----x--5-----x--9-----x--8-----x-|--7-----x-----------5----------------|
B|--------x--------x--7-----x--6-----x-|--5-----x----------------------------|

  GTR I
e|-------------------------------------|-------------------------------------|
B|-------------------------------------|-------------------------------------|
G|-------------------------------------|-------------------------------------|
D|-------------------------------------|-------------------------------------|
A|-------------------------------------|-------------------------------------|
E|-------------------------------------|-------------------------------------|
B|-------------------------------------|-------------------------------------|
 |
 |GTR II
e|-------------------------------------|-------------------------------------|
B|-------------------------------------|-------------------------------------|
G|-------------------------------------|-----------7-----------------9-------|
D|--9--------7-------------------------|-----------7--------7--------9-------|
A|--9--------7--------9--------8-------|--7--------5--------7--------7-------|
E|--7-----x--5-----x--9-----x--8-----x-|--7-----x-----------5----------------|
B|--------x--------x--7-----x--6-----x-|--5-----x----------------------------|

  GTR I
e|-------------------------------------|-------------------------------------|
B|-------------------------------------|-------------------------------------|
G|-------------------------------------|-------------------------------------|
D|-------------------------------------|-------------------------------------|
A|-------------------------------------|-------------------------------------|
E|-------------------------------------|-------------------------------------|
B|-------------------------------------|-------------------------------------|
 |
 |GTR II
e|-------------------------------------|-------------------------------------|
B|-------------------------------------|-------------------------------------|
G|-------------------------------------|-----------7-----------------9-------|
D|--9--------7-------------------------|-----------7--------7--------9-------|
A|--9--------7--------9--------8-------|--7--------5--------7--------7-------|
E|--7-----x--5-----x--9-----x--8-----x-|--7-----x-----------5----------------|
B|--------x--------x--7-----x--6-----x-|--5-----x----------------------------|

  GTR I
e|-------------------------------------|-------------------------------------|
B|-------------------------------------|-------------------------------------|
G|-------------------------------------|-------------------------------------|
D|-------------------------------------|-------------------------------------|
A|-------------------------------------|-------------------------------------|
E|-------------------------------------|-------------------------------------|
B|-------------------------------------|-------------------------------------|
 |
 |GTR II
e|-------------------------------------|-------------------------------------|
B|-------------------------------------|-------------------------------------|
G|-------------------------------------|-------------------------------------|
D|--9--------7-------------------------|-------------------------------------|
A|--9--------7--------9--------8-------|--7----------------------------------|
E|--7-----x--5-----x--9-----x--8-----x-|--7----------------------------------|
B|--------x--------x--7-----x--6-----x-|--5----------------------------------|

Post Solo

  GTR I
e|-------------------------------------|-------------------------------------|
B|-------------------------------------|-------------------------------------|
G|-------------------------------------|-------------------------------------|
G|-------------------------------------|-------------------------------------|
G|-------------------------------------|-------------------------------------|
E|-------------------------------------|-------------------------10-------12-|
B|--0-----0-15p-0--0-12~----0-15p-0--0-|-12~----0-15p-0--0-10h12----12p10----|
 |
 |GTR II
e|--------------------8----------------|--------------------8----------------|
B|-------------10----------------------|-------------10----------------------|
G|-------------------------------------|-------------------------------------|
D|-------------------------------------|-------------------------------------|
A|-------------------------------------|-------------------------------------|
E|-------------------------------------|-------------------------------------|
B|-------------------------------------|-------------------------------------|

  GTR I
e|-------------------------------------|-------------------------------------|
B|-------------------------------------|-------------------------------------|
G|-------------------------------------|-------------------------------------|
D|-------------------------------------|-------------------------------------|
A|-------------------------------------|-------------------------------------|
E|-------------------------------------|-/5----------------/5----------------|
B|--0-----0-15p-0--0-12~----0-15p-0--0-|-----5--4--3--2--0-----5--4--3--2--0-|
 |                                           .  .  .  .  .     .  .  .  .  
 |GTR II
e|--------------------8----------------|--------------------8----------------|
B|-------------10----------------------|-------------10----------------------|
G|-------------------------------------|-------------------------------------|
D|-------------------------------------|-------------------------------------|
A|-------------------------------------|-------------------------------------|
E|-------------------------------------|-------------------------------------|
B|-------------------------------------|-------------------------------------|

Verse 2

  GTR I,II
e|-------------------------------------|-------------------------------------|
B|-------------------------------------|-------------------------------------|
G|-------------------------------------|-------------------------------------|
G|-------------------------------------|-------------------------------------|
G|-------------------------------------|-------------------------------------|
E|-------------------------------------|-------------------------------------|
B|-------------------------------------|-------------------------------------|

  GTR I,II
e|-------------------------------------|-------------------------------------|
B|-------------------------------------|-------------------------------------|
G|-------------------------------------|-------------------------------------|
D|-------------------------------------|-------------------------------------|
A|-------------------------------------|-------------------------------------|
E|-------------------------------------|-------------------12p10----12p10/14-|
B|--0-----0--0h10h12--0-----0--0h10h12-|--0-----0--0h10h12--------0----------|
          .                 .                   .                 .

  GTR I,II
e|-------------------------------------|-------------------------------------|
B|-------------------------------------|-------------------------------------|
G|-------------------------------------|-------------------------------------|
G|-------------------------------------|-------------------------------------|
G|-------------------------------------|-------------------------------------|
E|-------------------------------------|-------------------------------------|
B|-------------------------------------|-------------------------------------|

  GTR I,II                                                               
e|-------------------------------------|-------------------------------------|
B|-------------------------------------|-------------------------------------|
G|-------------------------------------|-------------------------------------|
D|-------------------------------------|-------------------------------------|
A|-------------------------------------|-------------------------------------|
E|-------------------------------------|-------------------------------------|
B|--0-----0--0h10h12--0-----0--0h10h12-|--0-----0--0h10h12--5b6r5-3--5b6r5-3-|
          .                 .                   .                  

  GTR I,II
e|-------------------------------------|-------------------------------------|
B|-------------------------------------|-------------------------------------|
G|-------------------------------------|-------------------------------------|
G|-------------------------------------|-------------------------------------|
G|-------------------------------------|-------------------------------------|
E|-------------------------------------|-------------------------------------|
B|-------------------------------------|-------------------------------------|

  GTR I,II
e|-------------------------------------|-------------------------------------|
B|-------------------------------------|-------------------------------------|
G|-------------------------------------|-------------------------------------|
D|-------------------------------------|-------------------------------------|
A|-------------------------------------|-------------------------------------|
E|-------------------------------------|-------------------12p10----12p10/14-|
B|--0-----0--0h10h12--0-----0--0h10h12-|--0-----0--0h10h12--------0----------|
          .                 .                   .                 .

  GTR I,II
e|-------------------------------------|-------------------------------------|
B|-------------------------------------|-------------------------------------|
G|-------------------------------------|-------------------------------------|
G|-------------------------------------|-------------------------------------|
G|-------------------------------------|-------------------------------------|
E|-------------------------------------|--2----------------------------------|
B|-------------------------------------|--0----------------------------------|

  GTR I,II                                                   PH.      PH.
e|-------------------------------------|-------------------------------------|
B|-------------------------------------|-------------------------------------|
G|-------------------------------------|-------------------------------------|
D|-------------------------------------|-------------------------------------|
A|-------------------------------------|-------------------------------------|
E|-------------------------------------|-------------------------------------|
B|--0-----0--0h10h12--0-----0--0h10h12-|--0-----0--0h10h12--5b6r5-3--5b6r5-3-|
          .                 .                   .                  

Chorus 2

  GTR I,II
e|-------------------------------------|-------------------------------------|
B|-------------------------------------|-------------------------------------|
G|--4--4--4--4--4--4--4--4--4--4--4--4-|--4--4--4--4--4--4--4--4--4--4--4--4-|
D|--4--4--4--4--4--4--4--4--4--4--4--4-|--4--4--4--4--4--4--4--4--4--4--4--4-|
A|--2--2--2--2--2--2--2--2--2--2--2--2-|--2--2--2--2--2--2--2--2--2--2--2--2-|
E|-------------------------------------|-------------------------------------|
B|-------------------------------------|-------------------------------------|

  GTR I,II
e|-------------------------------------|-------------------------------------|
B|-------------------------------------|-------------------------------------|
G|--2--2--2--2--2--2--2--2--2--2--2--2-|--2--2--2--2--2--2--2--2--2--2--2--2-|
D|--2--2--2--2--2--2--2--2--2--2--2--2-|--2--2--2--2--2--2--2--2--2--2--2--2-|
A|--0--0--0--0--0--0--0--0--0--0--0--0-|--0--0--0--0--0--0--0--0--0--0--0--0-|
E|-------------------------------------|-------------------------------------|
B|-------------------------------------|-------------------------------------|

  GTR I,II
e|-------------------------------------|-------------------------------------|
B|-------------------------------------|-------------------------------------|
G|-------------------------------------|-------------------------------------|
D|--2--2--2--2--2--2--2--2--2--2--2--2-|-------------------------------------|
A|--2--2--2--2--2--2--2--2--2--2--2--2-|--5--5--5--5--5--5-------------------|
E|--0--0--0--0--0--0--0--0--0--0--0--0-|--5--5--5--5--5--5-------------------|
B|-------------------------------------|--3--3--3--3--3--3-10b---------------|

  GTR I                                                      PH.      PH.
e|-------------------------------------|-------------------------------------|
B|-------------------------------------|-------------------------------------|
G|-------------------------------------|-------------------------------------|
D|-------------------------------------|-------------------------------------|
A|-------------------------------------|-------------------------------------|
E|-------------------------------------|-------------------------------------|
B|--0-----0--0h10h12--0-----0--0h10h12-|--0-----0--0h10h12--5b6r5-3--5b6r5-3-|
 |        .                 .                   .                  
 |GTR II
e|--8--------------------------8-------|--8--------------------------8-------|
B|-----------8-------10----------------|-----------8-------10----------------|
G|-------------------------------------|-------------------------------------|
D|-------------------------------------|-------------------------------------|
A|-------------------------------------|-------------------------------------|
E|-------------------------------------|-------------------------------------|
B|-------------------------------------|-------------------------------------|

  GTR I,II
e|-------------------------------------|-------------------------------------|
B|-------------------------------------|-------------------------------------|
G|--4--4--4--4--4--4--4--4--4--4--4--4-|--4--4--4--4--4--4--4--4--4--4--4--4-|
D|--4--4--4--4--4--4--4--4--4--4--4--4-|--4--4--4--4--4--4--4--4--4--4--4--4-|
A|--2--2--2--2--2--2--2--2--2--2--2--2-|--2--2--2--2--2--2--2--2--2--2--2--2-|
E|-------------------------------------|-------------------------------------|
B|-------------------------------------|-------------------------------------|

  GTR I,II
e|-------------------------------------|-------------------------------------|
B|-------------------------------------|-------------------------------------|
G|--2--2--2--2--2--2--2--2--2--2--2--2-|--2--2--2--2--2--2--2--2--2--2--2--2-|
D|--2--2--2--2--2--2--2--2--2--2--2--2-|--2--2--2--2--2--2--2--2--2--2--2--2-|
A|--0--0--0--0--0--0--0--0--0--0--0--0-|--0--0--0--0--0--0--0--0--0--0--0--0-|
E|-------------------------------------|-------------------------------------|
B|-------------------------------------|-------------------------------------|

  GTR I,II
e|-------------------------------------|-------------------------------------|
B|-------------------------------------|-------------------------------------|
G|-------------------------------------|-------------------------------------|
D|--2--2--2--2--2--2--2--2--2--2--2--2-|-------------------------------------|
A|--2--2--2--2--2--2--2--2--2--2--2--2-|--5----------------------------------|
E|--0--0--0--0--0--0--0--0--0--0--0--0-|--5----------------------------------|
B|-------------------------------------|--3----------------10b---------------|

Outro

  GTR I,II
e|-------------------------------------|-------------------------------------|
B|-------------------------------------|-------------------------------------|
G|-------------------------------------|-------------------------------------|
D|-------------------------------------|-------------------------------------|
A|-------------------------------------|-------------------------------------|
E|-------------------------------------|-/5----------------/5----------------|
B|--5b6r5-3--5b6r5-3--5b6r5-3--5b6r5-3-|-----5--4--3--2--0-----5--4--3--2--0-|
                                             .  .  .  .  .     .  .  .  .  .

  GTR I,II
e|-------------------------------------|
B|-------------------------------------|
G|-------------------------------------|
D|-------------------------------------|
A|-------------------------------------|
E|-/5-----------------2----------------|
B|-----5--4--3--2--0--0----------------|
       .  .  .  .  .


| /  slide up
| \  slide down
| h  hammer-on
| p  pull-off
| ~  vibrato
| +  harmonic
| x  Mute note
===============================================================================

Suggest correction
comments
print report bad tab
6 comments total. Showing first comments.
0 reply
shiick 10 Mar 26, 2010 08:55 AM

Great tab.... Just needs a solo! Good job

0 reply
KataklysmDeth 20 Aug 15, 2010 06:06 PM

the solo isn't that hard...or really relevant just watch the music video.

0 reply
DanielHsv0 57 Nov 28, 2012 05:02 AM

Nickleback use 7Strings?

guest
You may want to rate the tab now too:
select rating
Wanna post a correction for this tab? Suggest correction