Oops, an error
Loading. Please wait.

Curb album bass

version 1
version 1

Album

Interactive

3,353 views 1 this week
4 commentsread comments
1 2 3 4 5
x 5
add to favorites
×
Save as Personal and add changes to this tab that will be seen only by you. Learn more ›
×
You can save this tab as Personal to edit and correct it or add notes. All changes will be seen only by you. Learn more »
launch autoscroll
font size
0
reset
guitar tuner
edit
Autoscroll
slow
fast
+/-
esc
set tempo
stop
Band: Nickelback
Album: Curb
Bassist: Mike Kroeger
______________________________
Song Index

1. Little Friend
2. Pusher
3. Detangler
4. Curb
5. Where?
6. Falls Back On
7. Sea Groove
8. Fly
9. Just Four
10. Left
11. Window Shopper
12. I Don't Have
_______________________________

=================================
         Little Friend
=================================

Dont come in until 0:14

G|--------|
D|--------|
A|--------|
D|3-------|

Intro 

G|------------------------------|
D|-----------(x3)---------------|
A|------------------------------|
D|00-000-03--------00-000-03033-|

Verse (yes, its very simple, just listen for the timing)

G|-------------------------------|
D|-----------(x7)----------------|
A|-------------------------------|
D|00-000-03--------00-000-03033/-|

Chorus

G|-----------------------------------------|
D|-----------------------------------------|
A|11111111-33333333------------------------|
D|------------------00-000-3--00-000-03033-|

Verse (same as the first)

G|-------------------------------|
D|-----------(x7)----------------|
A|-------------------------------|
D|00-000-03--------00-000-03033/-|

Chorus

G|----------------------------------------------|  (x2)
D|---------------------------(x3)---------------|
A|11111111-33333333-----------------------------|
D|------------------00-000-3-------00-000-03033-|

Bridge

G|-------------------| (x12)
D|-------------------|
A|----5h3------------|
D|0-00----5-33-03-53-|

Final Chorus

G|----------------------------------------------------|
D|----------------------------------------------------|
A|1111111111111111-3333333333333333-11111111-33333333-|
D|----------------------------------------------------|

G|--------------------------|
D|---------(x3)-------------|
A|--------------------------|
D|00-000-3-----00-000-03033-|

G|--------------------------------------------------------------------|
D|--------------------------------------------------------------------|
A|1111111111111111-3333333333333333-----------------------------------|
D|----------------------------------3333333333333333-5555555555555555-|

G|--------------------------------|
D|---------------------------(x4)-|
A|11111111-33333333---------------|
D|------------------00-000-3------|

Let that final note ring.

==============================
        2. Pusher
==============================

Intro

Gb|-------------| (x4)
Db|-------------|
Ab|-------------|
Db|0-345---3-5--|

Verse

Gb|-----------------------------------------| (x3)
Db|-----------------------------------------|
Ab|0-000-000-1-111-111----------------------|
Db|--------------------3-333-333-5-555-555\-|

Gb|------------------------------------------------------|
Db|------------------------------------------------------|
Ab|0-000-000-1-111-11/15-151515-151515-15-151515-151515\-|
Db|------------------------------------------------------|

Chorus (same as the intro, pretty much)

Gb|-------------| (x4)
Db|-------------|
Ab|-------------|
Db|0-345---3-5--|

Verse (exactly the same)

Verse

Gb|-----------------------------------------| (x3)
Db|-----------------------------------------|
Ab|0-000-000-1-111-111----------------------|
Db|--------------------3-333-333-5-555-555\-|

Gb|------------------------------------------------------|
Db|------------------------------------------------------|
Ab|0-000-000-1-111-11/15-151515-151515-15-151515-151515\-|
Db|------------------------------------------------------|
(Those are 15s, by the way, not 1s and 5s)

Chorus (same, put here for readability)

Gb|-------------| (x4)
Db|-------------|
Ab|-------------|
Db|0-345---3-5--|

Bridge

Gb|----------------------------------------| (x4)
Db|----------------------------------------|
Ab|----------------------11111111-33333333-|
Db|333-333-33-222-222-22-------------------|
(There are variations played on that rythm, just follow the guitar)

Gb|-----| (x3)
Db|-----|
Ab|33-3-|
Db|-----|

Chorus 

Gb|-------------| (x8)
Db|-------------|
Ab|-------------|
Db|0-345---3-5--|

And let the end note ring.

===========================
       3. Detangler
===========================
This song basically revolves around the same chord progression,
so its nothing that complicated

Intro 

G|---------|-----------------------------------------|
D|---------|------------------------------------(x4)-|
A|33333333-|00000000-33333333----------55555555------|
D|---------|------------------55555555---------------|

Verse

G|------------------------| (x4)
D|------------------------|
A|00-00-------------------|
D|------33-33-55-55-00-00-|

Chorus

G|-----------------------------------------|
D|------------------------------------(x2)-|
A|00000000-33333333----------55555555------|
D|------------------55555555---------------|

G|-----------------------------------| (x2)
D|-----------------------------------|
A|00-000-0-33-333-3----------55-555-5|
D|------------------55-555-5---------|

Verse

G|------------------------| (x4)
D|------------------------|
A|00-00-------------------|
D|------33-33-55-55-00-00-|

Chorus

G|-----------------------------------------|
D|------------------------------------(x4)-|
A|00000000-33333333----------55555555------|
D|------------------55555555---------------|

G|-----------------------------------| (x4)
D|-----------------------------------|
A|00-000-0-33-333-3----------55-555-5|
D|------------------55-555-5---------|

Bridge

G|----------------------------------| (x2)
D|----------------------------------|
A|----------------------------------|
D|3333333333333333-5555555555555222-|

G|------------------------|--------------------|
D|------------------------|--------------------|
A|------------------------|--------------------|
D|33-33-33-33-55-55-55-55-|33-33-33-33-R-R-R-R-|

Post Bridge part

G|--------| (Basically dont play; I always hear this thing right before
D|--------|  the next part, sounds like D|5\.  But Im not sure.)
A|--------|
D|R-R-R-R-|

Verse

Verse

G|------------------------| (x4)
D|------------------------|
A|00-00-------------------|
D|------33-33-55-55-00-00-|

Chorus

G|-----------------------------------------|
D|------------------------------------(x4)-|
A|00000000-33333333----------55555555------|
D|------------------55555555---------------|

G|-----------------------------------| (x4)
D|-----------------------------------|
A|00-000-0-33-333-3----------55-555-5|
D|------------------55-555-5---------|

Ending Note

G|----|
D|----|
A|----|
D|3~--|

========================
       4. Curb
========================

Intro (yes, that is bass)

G|--------------7h65-|-----------------| (x2)
D|04-04-04h5-55------|04-05h7-7-55-----|
A|-------------------|-----------------|
D|-------------------|-------------543-|

Verse (Ya, not so sure on this one.  Help would be appreciated.)

G|---------555555555-| (x4)
D|4444444------------|
A|-------------------|
D|-------------------|

G|--------5-----| (x2)  G|--------5---|
D|4444444-------|       D|4444444-----|
A|----------653-|       A|------------|
D|--------------|       D|------------|

Chorus

G|--------------------------------------------|
D|--------------------------(x2)--------------|
A|---3h5----3h5----3h5--653--------3----------|
D|000---000----000-------------------03-5-5-5-|

Intro to verse

G|--------------8h75-|-------------------| 
D|04-04-04h5-55------|04-05h7-7-55-------|
A|-------------------|--------------5----|
D|-------------------|-------------0-5---|

Verse

G|---------555555555--(x4)---------555555875-| 
D|4444444------------------4444444-----------|
A|-------------------------------------------|
D|-------------------------------------------|     

G|--------5-----| (x3)  G|--------5---|
D|4444444-------|       D|4444444-----|
A|----------653-|       A|------------|
D|--------------|       D|------------|

Chorus

G|----------------------------|----------------|
D|----------------------------|----------------|
A|---3h5----3h5----3h5--653---|---3---3---33h5-|
D|000---000----000------------|000--00--00-----|

G|----------------------------------------|
D|----------------------------------------|
A|---3h5----3h5----3h5--653----3----------|
D|000---000----000---------------03-5-5-5-|

Post Chorus Thing

G|---------| (x8)
D|---------|
A|3h5--3---|
D|---------|

Solo

G|--------------------------| (x4)
D|-----------------------4--|
A|---3h5----3h5----3h5--5-3-|
D|000---000----000----------|

G|------------------------------------------|
D|-------------------------(x4)-------------|
A|---3h5----3h5----3h5--663----3------------|
D|000---000----000-----------------03-5-5-5-|

Weird Arab-sounding part

G|---------------|
D|----(x3)-------|
A|666--------5---|
D|---------------|

Chorus (Play all of this twice)

G|-------------------------------|----------------|
D|-------------------------(x2)--|----------------|
A|---3h5----3h5----3h5--653------|---3---3---33h5-|
D|000---000----000---------------|000--00--00-----|

G|----------------------------------------|
D|----------------------------------------|
A|---3h5----3h5----3h5--653----3----------|
D|000---000----000---------------03-5-5-5-|

Outro

G|-------------| (x4)
D|-------------|
A|5---3-33-3-3-|
D|-------------|

Let that last note ring

============================
       5. Where?
============================

Intro

G|-----------|--------| (x7, except the slide down from the G)
D|-----------|--------|
A|------3-5--|---3----|
D|5\-0-------|0----3--|

G|--------|------|
D|--------|------|
A|---3-5--|------|
D|0-------|0-----|

Pre-Verse

G|----------| (x4)
D|----------|
A|----------|
D|00-0-0h10-|

Verse

G|------------------------------------|----------------------------------|
D|------------------------------------|----------------------------------|
A|------------------33333333-00000000-|------------------33333333-00---5\|
D|00000000-33333333-------------------|00000000-33333333------------R-R--|

G|----------------------------------------| (x2)
D|-----------------------------------(x2)-|
A|------------------333-3333-00000353-----|
D|00000000-333-3333-----------------------|

Chorus (So where the hell...)

G|-------------------------------|
D|--------------------------(x2)-|
A|---------33333333---5h65-------|
D|33333333----------00-----3-----|

G|-----------------------------------|---------|
D|-----------------------------------|---------|
A|--------33-33333----------11-11111-|11-1-3---|
D|33-33333---------55557777----------|---------|

Pre-Solo

G|---------|--------| (x4)
D|---------|--------|
A|----3-5--|---3----|
D|-0-------|0----3--|

Solo

G|-----------|------------|------------|---------| (x2)
D|-----------|------------|------------|---------|
A|-----------|------------|------------|---------|
D|70-h70-h70-|h70-h70-h70-|h50-h50-h50-|00-00-00-|

Bridge

G|---------------|-------------| (x4)
D|---------------|-------------|
A|---------------|-------------|
D|00-3h5-3h5-3h5-|00-3h5-xx-35-|

2nd half of verse only

G|----------------------------------------|
D|-----------------------------------(x2)-|
A|------------------333-3333-00000353-----|
D|00000000-333-3333-----------------------|

Chorus

G|-------------------------------|
D|--------------------------(x2)-|
A|---------33333333---5h65-------|
D|33333333----------00-----3-----|

G|-----------------------------------|---------|
D|-----------------------------------|---------|
A|--------33-33333----------11-11111-|11-1-3---|
D|33-33333---------55557777----------|---------|

Ending

G|--------|--------| (x2)
D|--------|--------|
A|----3-5-|---3----|
D|0-------|0----3--|

G|-------|-----|
D|-------|-----|
A|---3-5-|-----|
D|0------|0~---|

===============================
       6.Falls Back On
===============================

Verse 

G|-----------|------------|-----------|---------|
D|-----------|------------|-----------|---------|
A|0-100-10---|0-100-10-33-|0-100-10---|0-100-100|
D|--------55-|------------|--------55-|---------|


Chorus

G|------------------|----------------------|
D|------------------|-----------------(x4)-|
A|33333333-555550-0-|----------------------|
D|------------------|7--5h7--5h7-101010----|

G|------------------|
D|------------------|
A|33333333-55555555-|
D|------------------|

G|-----------|------------|-----------|---------|
D|-----------|------------|-----------|---------|
A|0-100-10---|0-100-10-33-|0-100-10---|0-100-100|
D|--------55-|------------|--------55-|---------|

G|------------------|
D|------------------|
A|33333333-55555555-|
D|------------------|

G|-----------|------------|
D|-----------|------------|
A|0-100-10---|0-100-10-33-|
D|--------55-|------------|

Verse

G|-----------|------------|-----------|---------|
D|-----------|------------|-----------|---------|
A|0-100-10---|0-100-10-33-|0-100-10---|0-100-100|
D|--------55-|------------|--------55-|---------|

Chorus

G|------------------|----------------------|
D|------------------|-----------------(x4)-|
A|33333333-555550-0-|----------------------|
D|------------------|7--5h7--5h7-101010----|

G|------------------|
D|------------------|
A|33333333-55555555-|
D|------------------|

G|-----------|------------|-----------|---------|
D|-----------|------------|-----------|---------|
A|0-100-10---|0-100-10-33-|0-100-10---|0-100-100|
D|--------55-|------------|--------55-|---------|

G|------------------|
D|------------------|
A|33333333-55555555-|
D|------------------|

G|-----------|------------|
D|-----------|------------|
A|0-100-10---|0-100-10-33-|
D|--------55-|------------|

Bridge

G|----------------|----------| (x2)
D|----------------|----------|
A|----------------|----------|
D|8888888888888888|7-877-877-|

G|----------------|----------------|
D|----------------|----------------|
A|----------------|----------------|
D|8888888888888888|3333333333333333|

G|-----------|------------|-----------|---------|
D|-----------|------------|-----------|---------|
A|0-100-10---|0-100-10-33-|0-100-10---|0-100-100|
D|--------55-|------------|--------55-|---------|

Verse

G|-----------|------------|-----------|---------|
D|-----------|------------|-----------|---------|
A|0-100-10---|0-100-10-33-|0-100-10---|0-100-100|
D|--------55-|------------|--------55-|---------|


Chorus

G|------------------|----------------------|
D|------------------|-----------------(x4)-|
A|33333333-555550-0-|----------------------|
D|------------------|7--5h7--5h7-101010----|

G|------------------|
D|------------------|
A|33333333-55555555-|
D|------------------|

G|-----------|------------|-----------|---------|
D|-----------|------------|-----------|---------|
A|0-100-10---|0-100-10-33-|0-100-10---|0-100-100|
D|--------55-|------------|--------55-|---------|

G|------------------|
D|------------------|
A|33333333-55555555-|
D|------------------|

G|-----------|------------|-----------|---------|
D|-----------|------------|-----------|---------|
A|0-100-10---|0-100-10-33-|0-100-10---|0-100-10-|
D|--------55-|------------|--------55-|--------5|

================================
          7. Sea Groove
================================
Intro

F|-----------------| 
C|----------(x7)---|
G|-----------------|
C|0-00-00007-----0-|

Pre-Verse

F|---------| (x4)
C|---2-00--|
G|---------|
C|24-------|

Verse

F|----------| (x8)
C|4-4-4-----|
G|-------35-|
C|----------|

Chorus

F|---------| (x4)
C|---2-00--|
G|---------|
C|24-------|

Post-Chorus

F|--------------|  (x4)
C|--------------|
G|--------------|
C|5-5-5-5-345-5-|

F|-----------|
C|-----------|
G|-----------|
C|234-4-4----|

Pre-Verse

F|---------| (x4)
C|---2-00--|
G|---------|
C|24-------|

Verse

F|----------| (x8)
C|4-4-4-----|
G|-------35-|
C|----------|

Chorus

F|---------| (x4)
C|---2-00--|
G|---------|
C|24-------|

Post-Chorus

F|--------------|  (x4)
C|--------------|
G|--------------|
C|5-5-5-5-345-5-|

F|-----------|
C|-----------|
G|-----------|
C|234-4-4----|

Pre-Verse

F|---------| (x4)
C|---2-00--|
G|---------|
C|24-------|

Bridge

F|------------------------------------| (x4)
C|------------------------------------|
G|---------33333333-------------------|
C|33333333----------55555555-55555555-|

Chorus (starts with intro)

F|------------------| 
C|----------(x20)---|
G|------------------|
C|0-00-00007--------|

Post-Chorus

F|--------------|  (x4)
C|--------------|
G|--------------|
C|5-5-5-5-345-5-|

F|-----------|
C|-----------|
G|-----------|
C|234-4-4----|

Chorus

F|---------| (x8)
C|---2-00--|
G|---------|
C|24-------|

F|---|
C|---|
G|---|
C|24-|

=======================
       8. Fly
=======================

Chorus (Dont play in 1st verse)

G|-----------------------------------|
D|-----------------(x3)--------------|
A|----------------------22222222-4~--|
D|44444444-66666666------------------|

Verse

G|----------------------------------------|
D|-------------------(x2)-----------------|
A|1-11-4-44-0-00-2-22---1-11-4-44-0-00-2--|
D|----------------------------------------|

Chorus 

G|--------------------------------------------------|
D|-----------------(x3)-----------------------------|
A|----------------------22222222-44444444-44444444--|
D|44444444-66666666---------------------------------|

Bridge

G|-------------------------------------------------------------------|
D|-----------------------------------(x3)----------------------------|
A|------------------00000000-22222222---------------------00000000-2-|
D|44444444-66666666---------------------44444444-66666666------------|


Verse

G|----------------------------------------|
D|-------------------(x3)-----------------|
A|1-11-4-44-0-00-2-22---1-11-4-44-0-00-2--|
D|----------------------------------------|

Chorus 

G|--------------------------------------------------|
D|-----------------(x3)-----------------------------|
A|----------------------22222222-44444444-44444444--|
D|44444444-66666666---------------------------------|

Bridge

G|-------------------------------------------------------------------|
D|-----------------------------------(x3)----------------------------|
A|------------------00000000-22222222---------------------00000000-2-|
D|44444444-66666666---------------------44444444-66666666------------|

===================================
           9. Just Four
===================================
Intro

G|----|--------------------------------| (x4)
D|----|--------------------------------|
A|----|--------------------------------|
D|13\-|13333-5h66-5h666-1111-xxxxxxxxxx|      

Verse (immediately play)

G|--------------------| (x10)
D|--------------------|
A|--------------------|
D|1h333-6666\11111111-|

Chorus 

G|--------------------------------| (x4)
D|--------------------------------|
A|--------------------------------|
D|13333-5h66-5h666-1111-xxxx-xx---|

Verse

G|--------------------| (x10)
D|--------------------|
A|--------------------|
D|1h333-6666\11111111-|

Chorus 

G|--------------------------------| (x6)
D|--------------------------------|
A|--------------------------------|
D|13333-5h66-5h666-1111-xxxx-xx---|

Bridge

G|--------------------| (x3)
D|--------------------|
A|--------------------|
D|1h333-6666\11111111-|

G|-----------------|
D|-----------------|
A|-----------------|
D|1h333-6666\111---|

G|--------------------| 
D|--------------------|
A|--------------------|
D|1h333-6666\11111111-|

G|-----------------|
D|-----------------|
A|-----------------|
D|1h333-6666\111---|

G|--------------------| (x3)
D|--------------------|
A|--------------------|
D|1h333-6666\11111111-|

Chorus

G|--------------------------------| (x8)
D|--------------------------------|
A|--------------------------------|
D|13333-5h66-5h666-1111-xxxx-xx---|

Final Note

G|----|
D|----|
A|----|
D|1~--|

==============================
        10. Left
==============================

Rest for intro, come in at pre-verse

G|---------------| (x4)
D|---------------|
A|---------------|
D|0---00--77-96--|

Rest for guitar part, then come in at next verse

G|---------------| (x4)
D|---------------|
A|---------------|
D|0---00--77-96--|

Chorus

G|----------| (x4)
D|----------|
A|----------|
D|0-0--0-0--|

Pre-Verse

G|-----------| (x4)
D|-----------|
A|-----------|
D|0-0-0-7h87-|

Verse

G|---------------| (x4)
D|---------------|
A|---------------|
D|0---00--77-96--|

Chorus

G|----------| (x4)
D|----------|
A|----------|
D|0-0--0-0--|

Post-Chorus

G|------------------|-----------------|--------------------|
D|------------------|------------(x2)-|---------------(x2)-|
A|11111111----------|---1-1-----------|--------------------|
D|---------33333333-|0-0---3-37-7-----|000-222-333-555-----|

G|-----------|
D|-----------|
A|---11-3~---|
D|0-0--------|

G|-----------| (x4)
D|-----------|
A|-----------|
D|0-0-0-7h87-|

Bridge

G|----------|----------| (x4)
D|----------|----------|
A|----------|----------|
D|0-0h66h77-|0-0h44h55-|

G|------|-------------|-------------|
D|--(x4)|---------(x8)|---------(x4)|
A|------|-------5-----|------5------|
D|0-----|0-0-353------|0-0-35-3-----|

Chorus

G|----------| (x4)
D|----------|
A|----------|
D|0-0--0-0--|

Post-Chorus

G|------------------|-----------------|--------------------|
D|------------------|------------(x2)-|---------------(x2)-|
A|11111111----------|---1-1-----------|--------------------|
D|---------33333333-|0-0---3-37-7-----|000-222-333-555-----|

G|-----------|
D|-----------|
A|---11-3~---|
D|0-0--------|

==========================
    11. Window Shopper
==========================

Intro

G|-------|
D|-------|
A|-------|
D|5/15\5-|

Verse

G|------------------------------| (x8)
D|------------------------------|
A|------------------------------|
D|88-5--8h1010-5--x88-5--3--10--|

Chorus

G|-----------------|----------------| (x2)
D|-----------------|----------------|
A|-----------------|----------------|
D|3333333333333333-|88-5--8h1010-5--|

G|-----------------|--------|
D|-----------------|--------|
A|3333333333333333-|----3---|
D|-----------------|3-------|

Verse

G|------------------------------| (x4)
D|------------------------------|
A|------------------------------|
D|88-5--8h1010-5--x88-5--3--10--|

Chorus

G|-----------------|----------------| (x2)
D|-----------------|----------------|
A|-----------------|----------------|
D|3333333333333333-|88-5--8h1010-5--|

G|-----------------|--------|
D|-----------------|--------|
A|3333333333333333-|----3---|
D|-----------------|3-------|

Post-Chorus

G|------------------------------| (x3)
D|------------------------------|
A|------------------------------|
D|88-5--8h1010-5--x88-5--3--10--|

G|--------|
D|--------|
A|----3---|
D|3-------|

G|------------------------------| (x2)
D|------------------------------|
A|------------------------------|
D|88-5--8h1010-5--x88-5--3--10--|

Bridge

G|--------------------------------------------------------------------| (x2)
D|--------------------------------------------------------------------|
A|1111111111111111-3333333333333333-6666666666666666-8888888888888888-|
D|--------------------------------------------------------------------|

Post Bridge part

G|----------------| (x3)
D|----------------|
A|----------------|
D|7h88-5-xx-xx-xx-|

G|------------------------------| (x2)
D|------------------------------|
A|------------------------------|
D|88-5--8h1010-5--x88-5--3--10--|

G|--------------------------------------------------------------------| (x2)
D|--------------------------------------------------------------------|
A|1111111111111111-3333333333333333-6666666666666666-8888888888888888-|
D|--------------------------------------------------------------------|

G|------------------------------| (x2)
D|------------------------------|
A|------------------------------|
D|88-5--8h1010-5--x88-5--3--10--|

G|----------|
D|----------|
A|----3-----|
D|3-------33|

===========================
     12. I Don't Have
===========================

Intro 

G|---|
D|---|
A|---|
D|2--|

G|------------|------------| (x2)
D|---4h5h42-5-|---4h5h4----|
A|------------|------------|
D|44----------|44-------2--|

Verse

G|------------|----------| -----------|
D|------------|------(x2)|------------|
A|------------|----------|------------|
D|44-4h5h42-5-|44-0-2----|44-4h5h42---|

Pre-Chorus

G|------------------------------------| (x3)
D|------------------------------------|
A|------------------------------------|
D|99999999-77777777-55555555-77777777-|

G|------------------------------|
D|------------------------------|
A|------------------------------|
D|99999999-77777777-55555555-777|

Chorus

G|------------------------| (x2)
D|------------------------|
A|------------------------|
D|0h99--0h77--0h22--0h99--|

G|----------------------|
D|----------------------|
A|----------------------|
D|77777777-555555555555-|

Pre-Verse

G|------------|------------| (x2)
D|---4h5h42-5-|---4h5h4----|
A|------------|------------|
D|44----------|44-------2--|

Verse

G|------------|----------| -----------|
D|------------|------(x3)|------------|
A|------------|----------|------------|
D|44-4h5h42-5-|44-0-2----|44-4h5h42---|

Pre Chorus

G|------------------------------------| 
D|------------------------------------|
A|------------------------------------|
D|99999999-77777777-55555555-77777777-|

G|------------------------------|
D|------------------------------|
A|------------------------------|
D|99999999-77777777-55555555-777|

Chorus

G|------------------------| (x2)
D|------------------------|
A|------------------------|
D|0h99--0h77--0h22--0h99--|

G|--------------------------------------------------------------|
D|--------------------------------------------------------------|
A|---------------------------33333333---------------------------|
D|77777777-55555555-77777777----------55555555-77777777-77777777|

G|-----------------------------------| (x6)
D|-----------------------------------|
A|33333333---------------------------|
D|---------55555555-77777777-77777777|

Chorus

G|------------------------| (x2)
D|------------------------|
A|------------------------|
D|0h99--0h77--0h22--0h99--|

G|------------------------------------|(x2)
D|------------------------------------|
A|------------------------------------|
D|99999999-77777777-22222222-99999999-|

G|----------------------------------|
D|----------------------------------|
A|----------------------------------|
D|99999999-77777777-22222222-9~-----|

_______________________________________________________

Thats it.  All of Curb by Nickelback.  This is my favorite Nickelback
album; its raw, it rocks, and its just cool.  I know I got some little
bits wrong, so critics and ratings are welcome.  

================Key=====================
\=Slide Down
/=Slide Up
~=Let Note Ring
x=Muted note
h=Hammer On
========================================

            
            
Suggest correction
Creating personal tab
Creating personal tab
You can edit any tab online and save it as your Personal.

You can edit, replace or remove any tab part or add personal notes – all changes will be seen only by you.

Personal tabs can be accessed anytime from any device, even offline.
Learn more »
comments
print report bad tab
4 comments total. Showing first comments.
0 reply
Teen Spirit 666 Jun 25, 2007 12:30 PM

WOW. this is just AMAZING. oh and by the way, i was one of the guyz that voted "yes" for your tab. but i wasn't the only one. i love this album too, it's so cool, so raw as you said. Well anyway, maybe about 5 stars or so should be fine. :P good job dude.

0 reply
Bass Pants 1,920 Jun 25, 2007 05:21 PM

i was the other who voted, it is a nice tab great job 5 stars

0 reply
fayless 10 Oct 21, 2007 06:30 PM

nice tab man! 5 stars! I hope you'll do All the Right Reasons!

guest
You may want to rate the tab now too:
select rating
Wanna post a correction for this tab? Suggest correction