Oops, an error
Loading. Please wait.

Detangler Tab

version 1
version 1

Whole song

Interactive

4,275 views 1 this week
1 commentread comment
1 2 3 4 5
x 6
add to favorites
launch autoscroll
font size
0
reset
how to read this tab
guitar tuner
Autoscroll
slow
fast
+/-
esc
set tempo
stop
Help us to improve Ultimate-Guitar.com Take our survey!
×
#----------------------------------PLEASE NOTE--------------------------------#
#This file is the author's own work and represents their interpretation of the#
#song. You may only use this file for private study, scholarship, or research.#
#-----------------------------------------------------------------------------#
#-- File created with Instab - http://www.pconline.com/~smcarey/instab.html --#
#-----------------------------------------------------------------------------#

Author/Artist: Nickelback
Title: Detangler
Album: Curb
Transcribed by: Michael Russell   (aka) "mitch"

Email: MichaelRussell0187@msn.com

This is my favorite nickelback song its simplicity is
so easy to play that even a beginer can play it.
Oh yeah my guitar is not with me cause im at work
and they would get pretty pissed at me if i brought it.
so if things arent totally correct please email me
thank you.

-----------------------------------------------------------------------------------------------|
-----------------------------------------------------------------------------------------------|
-----------------5-5-x-5-5-x-----------------5-5--5-5-5----------------------------------------|
-7-7-x-7-7-x-5-5-x-5-5-x-5-5-x-5-5-x-5-5--5-5-5------------------------------------------------|
-7-7-x-7-7-x-3-3-x-3-3-x-5-5-x-5-5-x-7-7--7-7-7------------------------------------------------|
-5-5-x-5-5-x-----------------3-3-x-3-3-x-------------------------------------------------------|
Suggest correction
comments
print report bad tab
1 comment total.
0 reply
cao9408 47 Oct 26, 2015 06:25 PM

I think this song is played like


e|------------------------------------------------------------------|
B|------------------------------------------------------------------|
G|-----------------x-x-5-5-x-x-5-5-----------------x-x-7-7-x-x-7-7--|
D|-x-x-7-7-x-x-7-7-x-x-5-5-x-x-5-5-x-x-5-5-x-x-5-5-x-x-7-7-x-x-7-7--|
A|-x-x-7-7-x-x-7-7-x-x-3-3-x-x-3-3-x-x-5-5-x-x-5-5-x-x-5-5-x-x-5-5--|
E|-x-x-5-5-x-x-5-5-----------------x-x-3-5-x-x-3-3------------------|

guest
You may want to rate the tab now too:
select rating
Wanna post a correction for this tab? Suggest correction