Oops, an error
Loading. Please wait.

Do This Anymore Tab

version 1
version 1

Whole song

Interactive

9,321 views 18 this week
no commentswrite comment
1 2 3 4 5
excellent!
x 5
add to favorites
launch autoscroll
font size
0
reset
how to read this tab
guitar tuner
Tab Pro tools
  • play this tab
  • loop segment
  • change instrument
  • show fretboard
  • metronome
Autoscroll
slow
fast
+/-
esc
set tempo
stop
Contributor
Difficulty
Tuning
intermediate
C G C F A D

Artist: Nickelback
Song: Do This Anymore


Tuning: Drop C  (C G C F A D from low to high)


Palm Muted:   *
Let Ring:     ~
Slide Up:     \
Slide Down:   /
Bend:         b
Hammer On:    h


Intro


Guitar 1

D------------------------------|  2x (last time don’t play the 10th fret)
A------------------------------|
F------------------------------|
C------------------------------|
G------------------------------|
C---5~--/--8~--\--3~--/--10~---|

Verse 1 (Guitar 1)  (Guitar 2 plays some slide stuff)

D-----------------------------------------------------|  2x
A-----------------------------------------------------|
F-----------------------------------------------------|
C---5-5-5-5-5--8-8-8-8-8--3-3-3-3-3--10-10-10-10-10---|
G---5-5-5-5-5--8-8-8-8-8--3-3-3-3-3--10-10-10-10-10---|
C---5-5-5-5-5--8-8-8-8-8--3-3-3-3-3--10-10-10-10-10---|
    * * * * *  * * * * *  * * * * *  *  *  *  *  *


Pre Chorus

D--------------------------------|
A--------------------------------|
F-----------------5-5-5-5-5-5-5--|
C---3-3-3-3-3-3-3-5-5-5-5-5-5-5--|
G---3-3-3-3-3-3-3-3-3-3-3-3-3-3--|
C---3-3-3-3-3-3-3----------------|
    * * * * * * * * * * *(*)      <- open last muted chords

Chorus

D-------------------------------------------------------------|  2x
A-------------------------------------------------------------|
F-------------------------------------------------------------|
C--/10---0-0---0-0-0--3-3---10-8-8----8-8-10-10----8-8-10-10--|
G--/10---0-0---0-0-0--3-3---10-8-8----8-8-10-10----8-8-10-10--|
C--/10---0-0---0-0-0--3-3---10-8-8----8-8-10-10----8-8-10-10--|
                                          *  *         *  *

D---------------------------------------------------| 2x
A---------------------------------------------------|
F---------------------------------------------------|
C--0-0--x-x-x-x--3-3-x-x-x-x--8-8-8-8--3h5—3h5------|
G--0-0--x-x-x-x--3-3-x-x-x-x--8-8-8-8--3h5—3h5------|
C--0-0--x-x-x-x--3-3-x-x-x-x--8-8-8-8-—3h5—3h5------|


D--------------------------------------------|
A--------------------------------------------|
F--------------------------------------------|
C--0-0-0-0--10-10-10-10--5-5-5-5--5p3—-5p3---|
G--0-0-0-0--10-10-10-10--5-5-5-5--5p3—-5p3---|
C--0-0-0-0--10-10-10-10--5-5-5-5—-5p3—-5p3---|

Verse 2 (Guitar 1)  (Guitar 2 plays some slide stuff)


Guitar 1

D------------------------------|  2x (last time don’t play the 10th fret)
A------------------------------|
F------------------------------|
C------------------------------|
G------------------------------|
C---5~--/--8~--\--3~--/--10~---|


D-----------------------------------------------------|  2x
A-----------------------------------------------------|
F-----------------------------------------------------|
C---5-5-5-5-5--8-8-8-8-8--3-3-3-3-3--10-10-10-10-10---|
G---5-5-5-5-5--8-8-8-8-8--3-3-3-3-3--10-10-10-10-10---|
C---5-5-5-5-5--8-8-8-8-8--3-3-3-3-3--10-10-10-10-10---|
    * * * * *  * * * * *  * * * * *  *  *  *  *  *


Pre Chorus

D--------------------------------|
A--------------------------------|
F-----------------5-5-5-5-5-5-5--|
C---3-3-3-3-3-3-3-5-5-5-5-5-5-5--|
G---3-3-3-3-3-3-3-3-3-3-3-3-3-3--|
C---3-3-3-3-3-3-3----------------|
    * * * * * * * * * * *(*)      <- open last muted chords


Chorus

D-------------------------------------------------------------|  2x
A-------------------------------------------------------------|
F-------------------------------------------------------------|
C--/10---0-0---0-0-0--3-3---10-8-8----8-8-10-10----8-8-10-10--|
G--/10---0-0---0-0-0--3-3---10-8-8----8-8-10-10----8-8-10-10--|
C--/10---0-0---0-0-0--3-3---10-8-8----8-8-10-10----8-8-10-10--|
                                          *  *         *  *

D---------------------------------------------------| 3x
A---------------------------------------------------|
F---------------------------------------------------|
C--0-0--x-x-x-x--3-3-x-x-x-x--8-8-8-8--3h5—3h5------|
G--0-0--x-x-x-x--3-3-x-x-x-x--8-8-8-8--3h5—3h5------|
C--0-0--x-x-x-x--3-3-x-x-x-x--8-8-8-8-—3h5—3h5------|


D---------------------------------|
A---------------------------------|
F---------------------------------|
C--0-0-0-0--10-10-10-10-10-10-10--|
G--0-0-0-0--10-10-10-10-10-10-10--|
C--0-0-0-0--10-10-10-10-10-10-10--|

Solo (Guitar 1)


D-------------------------------------|
A--------------6-5-6-6/8\6-5h6--------|
F-3/7~~\-5~~--------------------------|
C-------------------------------------|
G-------------------------------------|
C-------------------------------------|

D-----------15/17-15-13-15/17-15-13-------------|
A-13-15-13--------------------------13p15-13p15-|
F-----------------------------------------------|
C-----------------------------------------------|
G-----------------------------------------------|
C-----------------------------------------------|


D---15/17-15--13-15/17-15-13-15b~-|
A---------------------------------|
F---------------------------------|
C---------------------------------|
G---------------------------------|
C---------------------------------|


Guitar 2

D-------------------------------------|  2x
A-------------------------------------|
F-------------------------------------|
C-0-0-0-0-3-3-3-3-8-8-8-8-10-10-10-10-|
G-0-0-0-0-3-3-3-3-8-8-8-8-10-10-10-10-|
C-0-0-0-0-3-3-3-3-8-8-8-8-10-10-10-10-|

D----------------------------------------|
A----------------------------------------|
F----------------------------------------|
C-8-8-8-8-3-3-3-3-10-10-10-10—-5p3—-5p3--|
G-8-8-8-8-3-3-3-3-10-10-10-10—-5p3—-5p3--|
C-8-8-8-8-3-3-3-3-10-10-10-10—-5p3—-5p3--|

D----------------------------------|
A----------------------------------|
F----------------------------------|
C-8-8-8-8-3-3-3-3-10-10-10-10—-5~--|
G-8-8-8-8-3-3-3-3-10-10-10-10—-5~--|
C-8-8-8-8-3-3-3-3-10-10-10-10—-5~--|


Bridge/Verse 3

D------------------------------  2x (last time don’t play the 10-|th fret)
A----------------------------------------------------------------|
F----------------------------------------------------------------|  <- clean
C----------------------------------------------------------------|
G----------------------------------------------------------------|
C---5~--/--8~--\--3~--/--10~-------------------------------------|

D-----------------------------------------------------|  2x
A-----------------------------------------------------|
F-----------------------------------------------------|
C---5-5-5-5-5--8-8-8-8-8--3-3-3-3-3--10-10-10-10-10---|
G---5-5-5-5-5--8-8-8-8-8--3-3-3-3-3--10-10-10-10-10---|
C---5-5-5-5-5--8-8-8-8-8--3-3-3-3-3--10-10-10-10-10---|
    * * * * *  * * * * *  * * * * *  *  *  *  *  *


Pre Chorus

D--------------------------------|
A--------------------------------|
F-----------------5-5-5-5-5-5-5--|
C---3-3-3-3-3-3-3-5-5-5-5-5-5-5--|
G---3-3-3-3-3-3-3-3-3-3-3-3-3-3--|
C---3-3-3-3-3-3-3----------------|
    * * * * * * * * * * *(*)      <- open last muted chords


Chorus

D-------------------------------------------------------------|  2x
A-------------------------------------------------------------|
F-------------------------------------------------------------|
C--/10---0-0---0-0-0--3-3---10-8-8----8-8-10-10----8-8-10-10--|
G--/10---0-0---0-0-0--3-3---10-8-8----8-8-10-10----8-8-10-10--|
C--/10---0-0---0-0-0--3-3---10-8-8----8-8-10-10----8-8-10-10--|
                                          *  *         *  *


D---------------------------------------------------| 2x
A---------------------------------------------------|
F---------------------------------------------------|
C--0-0--x-x-x-x--3-3-x-x-x-x--8-8-8-8--3h5—3h5------|
G--0-0--x-x-x-x--3-3-x-x-x-x--8-8-8-8--3h5—3h5------|
C--0-0--x-x-x-x--3-3-x-x-x-x--8-8-8-8-—3h5—3h5------|

Outro

D----------------------------------------|
A----------------------------------------|
F----------------------------------------|
C-0-0-0-0--3-3-3-3--8-8-8-8—-3h5—-3h5----|
G-0-0-0-0--3-3-3-3--8-8-8-8—-3h5--3h5----|
C-0-0-0-0--3-3-3-3--8-8-8-8—-3h5--3h5----|

D----------------------------------------|
A----------------------------------------|
F----------------------------------------|
C-0-0-0-0--3-3-3-3--8-8-8-8—-3h5—-3h5----|
G-0-0-0-0--3-3-3-3--8-8-8-8—-3h5--3h5----|
C-0-0-0-0--3-3-3-3--8-8-8-8—-3h5--3h5----|
                    * * * *

D----------------------------------------|
A----------------------------------------|
F----------------------------------------|
C-0-0-0-0--3-3-3-3--8-8-8-8—-3h5—-3h5----|
G-0-0-0-0--3-3-3-3--8-8-8-8—-3h5--3h5----|
C-0-0-0-0--3-3-3-3--8-8-8-8—-3h5--3h5----|


D------------------------|
A------------------------|
F------------------------|
C-0-0-0-0--3-3-3-3—-10~—-|
G-0-0-0-0--3-3-3-3—-10~--|
C-0-0-0-0--3-3-3-3—-10~--|
comments
print report bad tab
I want to post or [tab]
guest
You may want to rate the tab now too:
select rating
Please do not post tabs as comments. Select "correction" instead!