Oops, an error
Loading. Please wait.

Do This Anymore Bass Tab

version 2
version 2

Whole song

Interactive

648 views 1 this week
1 commentread comment
1 2 3 4 5
excellent!
x 2
add to favorites
launch autoscroll
font size
0
reset
guitar tuner
Tab Pro tools
  • play this tab
  • loop segment
  • change instrument
  • show fretboard
  • metronome
Autoscroll
slow
fast
+/-
esc
set tempo
stop
Contributor
I'm a guitarist, but I tabbed this song for my friend on bass, i know its supposed to be
on a 5 string with standard tuning (b,e,a,d,g) but my friends 5 string was broken so i
to figure out the tab to play this song on a four string in drop C. So now all you guys 
want to play this song and only have a four string you can.

So here it is

And its very accurate :)

Comments and ratings are appreciated (Y)

Enjoy.


Song- Do This Anymore
Band- Nickelback
Tabbed by - MutantNoodles
Tuning- Drop C 4 String (C,g,c,f)

I wrote out the tab using D a d g, just pretend it says C g c f :)

Intro-
G--------------------| x2 (second time don’t play the last note)
D--------------------|
A----------------3~--|
D--5~/--8~---3~------|

Verse-
G--------------------------| x2
D--------------------------|
A--------1111-------3333---|
D--5555-------3333---------|

Prechorus-
G----------------|
D----------------|
A----------33333-|
D--33333333------|

Chorus-
G---------------------------------| x2
D-----------------0---------------|
A------------------1--1-113331333-|
D---0—-0—-12/3--3-----------------|

G---------------------------------| x2
D---------------------------------|
A-----------------1111------------|
E—-00xxxx—-33xx-3-------0-5--0-3--|

G--------------------------------|
D--------------------------------|
A------------3333---------1------|
D--8888-3333-------3-5--3--------|

Verse-
G--------------------------| x5
D--------------------------|
A--------1111-------3333---|
D--5555-------3333---------|

Prechorus-
G----------------|
D----------------|
A----------33333-|
D--33333333------|

Chorus-
G---------------------------------| x2
D-----------------0---------------|
A------------------1--1-113331333-|
D---0—-0—-12/3--3-----------------|


G---------------------------------| x2
D---------------------------------|
A-----------------1111------------|
E—-00xxxx—-33xx-3-------0-5--0-3--|

G-------------------------------|
D-------------------------------|
A------------3333---------------|
D--8888-3333-------3-5--5-7-----|

G-------------------------------|
D-------------------------------|
A------------33333333/----------|
D--8888-3333--------------------|

Fill before Guitar Solo
G---------------------------------------------|
D---------------------------------------------|
A--/12-15-15-12-15-15-12-15-15-12-15-15-17\---|
D---------------------------------------------|

Solo
G----------------------------| x2
D----------------------------|
A--------------1111—-3333----|
D—-0000—-3333----------------|

G----------------------------|
D----------------------------|
A--1111--------3333—---------|
D—-----—-3333--------3-5-5-7-|

G----------------------------|
D----------------------------|
A--1111--------3(let ring)---|
D—-----—-3333----------------|

ACOUSTIC BIT (no bass)

Verse-
G--------------------------|
D--------------------------|
A--------1111-------3333---|
D--5555-------3333---------|

Prechorus-
G----------------|
D----------------|
A----------33333-|
D--33333333------|

Chorus-
G---------------------------------| x2
D-----------------0---------------|
A------------------1--1-113331333-|
D---0—-0—-12/3--3-----------------|

G---------------------------------| x2
D---------------------------------|
A-----------------1111------------|
E—-00xxxx—-33xx-3-------0-5--0-3--|

G-----------------------------|
D-----------------------------|
A-------------3333------------|
D--8888-—3333-------3-5--5-7--|

G-------------------------------|
D-------------------------------|
A-------------33333333----------|
D--8888-—3333---------3-5--5-7--|

G-----------------------------|
D-----------------------------|
A-------------3333------------|
D--8888-—3333-------3-5--5-7--|

G-----------------------------|
D-----------------------------|
A-------------3(let ring)-----|
D--8888-—3333-----------------|


X - dead note/muted note
/ - slide up
\ - slide down
comments
We did not receive enough feedback on this tab! Please rate:
print report bad tab
1 2 3 4 5
1 comment total.
0 reply
fflzn1987 wrote on August 26 2014, 11:28 pm

spot on it would be nice if someone would tab these for 5 string

I want to post or [tab]
guest
You may want to rate the tab now too:
select rating
Please do not post tabs as comments. Select "correction" instead!