Oops, an error
Loading. Please wait.

Do This Anymore Bass Tab

version 3
version 3

Whole song

Interactive

265 views 1 this week
no commentswrite comment
1 2 3 4 5
please rate
add to favorites
launch autoscroll
font size
0
reset
guitar tuner
Tab Pro tools
  • play this tab
  • loop segment
  • change instrument
  • show fretboard
  • metronome
×
Best way to learn
"Do This Anymore"
Autoscroll
slow
fast
+/-
esc
set tempo
stop
Contributor
Difficulty
novice
Do This Anymore - Nickelback
5 String Bass Tab

If you wish to play this song but only have a 4 string bass and don't want to tune to 
Drop C, then I recommend using Version 2 of this song.

*Note* ||----|----|| represents two bars and is measured in 32nd notes
**Note** Each bar starts and ends with two "-" (these are not part of the song and do 
NOT represent a rest)

//Key//
  R - Rest

//INTRO//
G||-----------------------------------|-----------------------------------||
D||-----------------------------------|-----------------------------------||
A||-----------------------------------|-----------------------------------||
E||--1---------------4----------------|------------------4----------------||
B||-----------------------------------|--4--------------------------------||

G||-----------------------------------|-----------------------------------||
D||-----------------------------------|-----------------------------------||
A||-----------------------------------|-----------------------------------||
E||--1---------------4----------------|-----------------------------------||
B||-----------------------------------|--4---------------R----------------||

//VERSE// X2
G||-----------------------------------|-----------------------------------||
D||-----------------------------------|-----------------------------------||
A||-----------------------------------|-----------------------------------||
E||--1-----------1-2-4-----------2-1--|--------------2-4-6----------------||
B||-----------------------------------|--4---------------------------7-9--||

//CHORUS//
G||-----------------------------------|-----------------------------------||
D||-----------------------------------|-----------------------------------||
A||-----------------------------------|--1---1---1---1---1---R-------1-3--||
E||-----------------------------------|-----------------------------------||
B||--1---1---1---1---1---1---1---1----|-----------------------------------||

G||-----------------------------------|-----------------------------------||
D||-----------------------------------|-----------------------------------||
A||--------------3--------------------|----------------3------------------|| X2
E||--------------------------------3--|--4-R-4---4---R---4-6-6-4-6-6-4-6--||
B||--1-R-1---1-----4-4-R-4-R----------|-----------------------------------||

G||-----------------------------------|-----------------------------------||
D||-----------------------------------|-----------------------------------||
A||-----------------------------------|-----------------------------------|| X2
E||-----------------------------------|--4---4---4------------------------||
B||--1---1---R-------4---4---3-3-3-3--|------------------6-------4--------||

G||-----------------------------------|-----------------------------------||
D||-----------------------------------|-----------------------------------||
A||-----------------------------------|-----------------------------------||
E||--4---4---4---4--------------------|--6---6---6---6-----1-------4------||
B||------------------4---4---4---4----|------------------0-------0--------||

//VERSE// X5

//CHORUS// X1

//SOLO//
G||-----------------------------------|-----------------------------------||
D||-----------------------------------|-----------------------------------||
A||-----------------------------------|-----------------------------------||
E||--4---4---4---4--------------------|--6---6---6---6---6---6---6---6----||
B||------------------4---4---4---4----|-----------------------------------||

G||-----------------------------------||
D||--8---8---8---8---8---8---8---8----||
A||-----------------------------------||
E||-----------------------------------||
B||-----------------------------------||

G||-----------------------------------|-----------------------------------||
D||-----------------------------------|-----------------------------------||
A||-----------------------------------|-----------------------------------|| X2
E||-----------------------------------|--4---4---4---4---6---6---6---6----||
B||--1---1---1---1---4---4---4---4----|-----------------------------------||

G||-----------------------------------|-----------------------------------||
D||-----------------------------------|-----------------------------------||
A||-----------------------------------|-----------------------------------||
E||--4---4---4---4--------------------|--6---6---6---6-------------4------||
B||------------------4---4---4---4----|------------------0-6-----0--------||

G||-----------------------------------|-----------------------------------||
D||-----------------------------------|-----------------------------------||
A||-----------------------------------|-----------------------------------||
E||--4---4---4---4--------------------|--6--------------------------------||
B||------------------4---4---4---4----|-----------------------------------||

//BRIDGE//
G||-----------------------------------|-----------------------------------||
D||-----------------------------------|-----------------------------------||
A||-----------------------------------|-----------------------------------||
E||--1---------------4----------------|------------------4----------------||
B||-----------------------------------|--4--------------------------------||

G||-----------------------------------|-----------------------------------||
D||-----------------------------------|-----------------------------------||
A||-----------------------------------|-----------------------------------||
E||--1---------------4----------------|-----------------------------------||
B||-----------------------------------|--4---------------R----------------||

//VERSE// X2

//CHORUS// X1

//OUTRO//
G||-----------------------------------|-----------------------------------||
D||-----------------------------------|-----------------------------------||
A||-----------------------------------|-----------------------------------||
E||--4---4---4---4--------------------|--6-6-6-6-6-6-6-6------------------||
B||------------------4---4---4---4----|------------------6-4-----6-8------||

G||-----------------------------------|-----------------------------------||
D||-----------------------------------|-----------------------------------||
A||-----------------------------------|-----------------------------------||
E||--4---4---4---4--------------------|--6---6---6---6-----1-------4------||
B||------------------4---4---4---4----|------------------0-------0--------||

G||-----------------------------------|-----------------------------------||
D||-----------------------------------|-----------------------------------||
A||-----------------------------------|-----------------------------------||
E||--4---4---4---4--------------------|--6--------------------------------||
B||------------------4---4---4---4----|-----------------------------------||

//END SONG//
comments
We did not receive enough feedback on this tab! Please rate:
print report bad tab
1 2 3 4 5
I want to post or [tab]
guest
You may want to rate the tab now too:
select rating
Please do not post tabs as comments. Select "correction" instead!