Oops, an error
Loading. Please wait.

Edge Of A Revolution Tab

version 1
version 1

Whole song

Interactive

11,623 views 33 this week
4 commentsread comments
1 2 3 4 5
worth learning
x 6
add to favorites
launch autoscroll
font size
0
reset
how to read this tab
guitar tuner
Autoscroll
slow
fast
+/-
esc
set tempo
stop
Help us to improve Ultimate-Guitar.com Take our survey!
×
Author
#----------------------------------PLEASE NOTE--------------------------------#
#This file is the author's own work and represents their interpretation of the#
#song. You may only use this file for private study, scholarship, or research.#
#-----------------------------------------------------------------------------#
#-- File created with Instab - http://www.pconline.com/~smcarey/instab.html --#
#-----------------------------------------------------------------------------#

Author/Artist: Nickelback
Title: Edge of a Revolution
Transcribed By: Home

m mute
h hammer on
u up stroke


Tuning (c# A D f# a d), Down ~ 10%, (c#, D) Down ~ 20%
Alternate Tuning (eb A D G B E), palm mute top four strings.
Live Drop A Tuning, Down ~ 10%
Key: (D + C#)





----|----------------------------|
----|----------------------------|
----|----------------------------|
----|----------------------------|
----|(--0---0--0-0-0-0--0-0-0-0)-|
----|(8---8--------------------)-|


  Intro


----|------------------------------------------------------------------|
----|------------------------------------------------------------------|
----|--------------------------------------------------------10-x-x-8--|
----|-----------------7-7-7---5-5-7------------------------7-7--x-x-7--|
----|---0---------7---7-7-7---5-5-7-----0---------7--------7-----------|
----|-8---8---8---8---x-x-x---x-x-----8---8---8---8--11-11-x-----------|
                  u                               



----|--------------------------------------------------------------------------|
----|--------------------------------------------------------------------------|
----|--------------------------------------------------------------------------|
----|-----------------7-7-7---5-5-7---------------------------7----------------|
----|---0---------7---7-7-7---5-5-7---------------------------7----------------|
----|-8---8---8---8---x-x-x---x-x-----11-11-11-11-11-11-11-11---(8-8-8-8-8-8-8)|
                  u                   







----|-------------------------------------------------------------------|--|
----|-------------------------------------------------------------------|--|
----|-----------------------------10--------8---------------------------|--|
----|-----------------------2-2-7-7---2-2-5-5----------------7-7---7-7--|--|
----|(7)--------------------2-2-7-----2-2-5--(7)-------------7-7---7-7--|--|
----|(8)--------------------x-x-x-----x-x-x--(8)-------------x-x---x-x--|--|


  Verse







----|-------------------------------------------------------------------|
----|-------------------------------------------------------------------|
----|-------------------------------------------18----18------20----20--|
----|-17h19--19--19--19-19---17-17---17-17---19----19------19----19-----|
----|-------------------------------------------------------------------|
----|-------------------------------------------------------------------|


  Prechorus


----|----------------------|
----|----------------------|
----|----------------------|
----|-17-------------------|
----|----------------------|
----|----------------------|








----|--------------------------------------------------------------|
----|--------------------------------------------------------------|
----|-------------x-x---------------x-x-------x-x-x-x----------x-x-|
----|------7--7---x-x-------6/7-7---x-x-------x-x-x-x-------7--x-x-|
----|-10---7--7--------10---6/7-7----------5-------------5--7------|
----|-11---x--x--------11---------------8--8----------8--8---------|
      u                           

  Chorus








----|------------------------|--|-------------------|
----|------------------------|--|-------------------|
----|------------------------|--|-------------------|
----|------------------------|--|-------------------|
----|-15-0-0-15-15p12-10h12--|--|-15-0-0-7-7p5------|
----|------------------------|--|--------------11p8-|


  Interlude


----|------------------------------------------------------------------|
----|------------------------------------------------------------------|
----|------------------------------------------------------------------|
----|------------------------------------------------------------------|
----|---0-------7-15-0-0-15-15p12-10h12---0-------7--15-0-0-7-7p5------|
----|-8---8--8--8-----------------------8---8--8--8---------------11p8-|
                



----|-----------------------------------------------------------|
----|-----------------------------------------------------------|
----|-----------------------------------x-----------------------|
----|-----------------------------------x-----------------------|
----|---0-------7-15-0-0-15-15p12-10h12---3---3---5----7p5------|
----|-8---8--8--8-------------------------6---6---8--------11p8-|
                                            m   m   m  
Suggest correction
comments
print report bad tab
4 comments total. Showing first comments.
0 reply
Davitopia 41 wrote on August 23 2014, 02:29 pm

Lack of accuracy.

0 reply
XtractionProces 30 wrote on September 28 2014, 07:16 am

Clearly wrong. Yeah the tuning is drop A lol...I have nothing else to add this shitty review thing wants me to write more words

0 reply
colinmpj 10 wrote on February 13 2015, 12:00 am

Lack of accuracy. Wrong notes, tuning not correct. thats about it. I'd also like the chords to this as well to the song edge of a revolution

guest
You may want to rate the tab now too:
select rating
Wanna post a correction for this tab? Suggest correction