Oops, an error
Loading. Please wait.

Far Away Bass Tab

version 2
version 2
19,762 views 27 this week
no commentswrite comment
1 2 3 4 5
accurate
x 7
add to favorites
launch autoscroll
font size
0
reset
guitar tuner
Autoscroll
slow
fast
+/-
esc
set tempo
stop
Help us to improve Ultimate-Guitar.com Take our survey!
×
Far Away - Nickelback

Intro
G-------------------------------|
D-9~/11----/13------------------|
A--------9~-----11~/14----------|
E-------------------------12~/14|

Verse 
G--------------------|
D-9~-----------------|
A-----9~-11~---------|  2x
E--------------12~14-|

G------------------------|
D------------------------|
A-2~/4----/6-------------|
E-------2~---4~/7-0~2----|

Pre Chorus
G-------------------------------|
D-------------------------------|
A-4-4-4-4-4-4-4-4---------------|
E--------------------0-0-0-0-0~-|

Chorus
G---------------------------------------------|
D---------------------------------------------|
A-2-2-2-2/4---------/6------------------------|  2x
E------------2-2-2-2---4-4-4-4-/7---0-0-0-0/2-|

G-----------------------------------------|
D-----------------------------------------|
A-2-2-2-2---------------------------------|2x(2nd time hold out the first E)
E------------2-2-2-2---4-4-4-4----0-0-0-0-|

G-------------------------------|
D-9~/11----/13------------------|
A--------9~-----11~/14----------|
E-------------------------12~/14|

Verse 
G--------------------|
D-9~-----------------|
A-----9~-11~---------|  2x
E--------------12~14-|

G---------------------|
D---------------------|
A-2~/4----/6----------|
E-------2~---4~/7-0~2-|

Pre Chorus
G--------------------------------|
D--------------------------------|
A-4-4-4-4-4-4-4-4----------------|
E--------------------0-0-0-0-0~--|

Chorus
G---------------------------------------------|
D---------------------------------------------|
A-2-2-2-2/4---------/6------------------------|  2x
E------------2-2-2-2---4-4-4-4-/7---0-0-0-0/2-|

G-----------------------------------------|
D-----------------------------------------|
A-2-2-2-2---------------------------------|2x(2nd time hold out the first E)
E------------2-2-2-2---4-4-4-4----0-0-0-0-|


Break Until Chorus

Chorus
G---------------------------------------------|
D---------------------------------------------|
A-2-2-2-2/4---------/6------------------------|  
E------------2-2-2-2---4-4-4-4-/7---0-0-0-0/2-|

G------------------------|
D------------------------|
A-2-2-2-2/4---------/6---|  
E------------2-2-2-2---4~|

G----------------------------------|
D----------------------------------|
A-4-4-4-4--------------------------| 8x
E-----------4-4-4-4-6-6-6-6-2-2-2-2|

End
G-----|
D-4~--|
A-----|
E-2~--|
Suggest correction
comments
print report bad tab
guest
You may want to rate the tab now too:
select rating
Please do not post tabs as comments. Select "correction" instead!