Oops, an error
Loading. Please wait.

Far Away Bass Tab

version 3
version 3

Whole song

1,635 views 3 this week
no commentswrite comment
1 2 3 4 5
excellent!
x 1
add to favorites
launch autoscroll
font size
0
reset
guitar tuner
Tab Pro tools
  • play this tab
  • loop segment
  • change instrument
  • show fretboard
  • metronome
Autoscroll
slow
fast
+/-
esc
set tempo
stop
Contributor
Difficulty
intermediate
Far Away by Nickelback 

Standard tuning (EADG)
/ = Slide in
~ = hold

Intro:
G|-------------------|   1x
D|-------------------|
A|-2~-/4--/6--/2-----|
E|------2~--4~--0~-2-|

Verse:
G|-------------------|   2x
D|-------------------|
A|-2~----------------|
E|------2~--4~--0~-2-|

G|-------------------|   1x
D|-------------------|
A|-2~-/4--/6---2-----|
E|------2~--4~--0~-2-|


Pre-chorus:
G|----------------------------------|    1x
D|----------------------------------|
A|-4-4-4-4-4-4-4-4/6-7-7-7-7/9-14~--|
E|----------------------------------|


Chorus:
G|-------------------------------------|    3x
D|-------------------------------------|
A|-2-2-2-/4-------/6-------/2----------|
E|----------2-2-2----4-4-4----0-0-0-2--|

G|-----------------------------------|    1x
D|-----------------------------------|
A|-2-2-2-/4-------/6-------/2~-------|
E|----------2-2-2----4-4-4-----------|


Intro
Verse
Prechorus
Chorus

Bridge:
G|-------------------|   2x
D|-------------------|
A|-2~----------------|
E|------2~--4~--0~-2-|

Pre-chorus

Chorus:
G|-------------------------------------|    1x
D|-------------------------------------|
A|-2-2-2-/4-------/6-------/2----------|
E|----------2-2-2----4-4-4----0-0-0-2--|

G|-----------------------------------|    1x
D|-----------------------------------|
A|-2-2-2-/4-------/6-----------------|
E|----------2-2-2----4~--------------|



Chorus (2 steps higher):
G|-------------------------------------|    7x
D|-------------------------------------|
A|-4-4-4-/6-------/8-------/4----------|
E|----------4-4-4---6-6-6-----2-2-2-4--|

G|---------------------------------------|    1x
D|---------------------------------------|
A|-4-4-4-/6-------/8-------/4---------4--|
E|----------4-4-4---6-6-6-----2-2-2-4----|
comments
We did not receive enough feedback on this tab! Please rate:
print report bad tab
1 2 3 4 5
I want to post or [tab]
guest
You may want to rate the tab now too:
select rating
Please do not post tabs as comments. Select "correction" instead!