Oops, an error
Loading. Please wait.
We have an official Far Away tab made by UG professional guitarists. Check out the tab »
×
30,456 views 3 this week
8 commentsread comments
1 2 3 4 5
x 9
add to favorites
×
Save as Personal and add changes to this tab that will be seen only by you. Learn more ›
×
You can save this tab as Personal to edit and correct it or add notes. All changes will be seen only by you. Learn more »
launch autoscroll
font size
0
reset
how to read this tab
guitar tuner
backing track
0:00
0:00
edit
Autoscroll
slow
fast
+/-
esc
set tempo
stop
Author
Difficulty
tabbed by:
John kyle velasco
"far away"
by:nickelback

Intro/verse
chords: C,G.Am,F
|--------------------------------------------------------------------------|
|-----------0----------------0---------------0----------------3------------|
|---------5-----5---5------5-----5---5------5-----5---5------5-----5---5---|
|-------5---5-----5------5---5-----5------5---5-----5------5---5-----5-----|
|-----3---------------------------------0----------------------------------|
|----------------------3---------------------------------1-----------------|

REFRAIN: D,F

chorus:C5,G5,A5,F5
|--------------------------------------------------------------------------|
|--------------------------------------------------------------------------|
|--------------------------------------------------------------------------|
|------555-----------------------------------------------------------------|
|------333----555-----777-----333------------------------------------------|
|-------------333-----555-----111------------------------------------------|

VERSE:C,G.Am,F
|--------------------------------------------------------------------------|
|-----------0----------------0---------------0----------------3------------|
|---------5-----5---5------5-----5---5------5-----5---5------5-----5---5---|
|-------5---5-----5------5---5-----5------5---5-----5------5---5-----5-----|
|-----3---------------------------------0----------------------------------|
|----------------------3---------------------------------1-----------------|

REFRAIN: D,F

BRIDGE
|-------------------------------------------------------------------------|
|-------------0----------------0----------------0----------------3--------|
|---------5-----5---5------5-----5---5------5-----5---5------5-----5---5--|
|-------5---5-----5------5---5-----5------5---5-----5------5---5-----5----|
|-----3---------------------------------0---------------------------------|
|----------------------3---------------------------------1----------------|

CHORUS:C5,G5,A5,F5

ENDING CHORUS:D5,A5,B5,G5

            
            
Suggest correction
Creating personal tab
Creating personal tab
You can edit any tab online and save it as your Personal.

You can edit, replace or remove any tab part or add personal notes – all changes will be seen only by you.

Personal tabs can be accessed anytime from any device, even offline.
Learn more »
comments
print report bad tab
8 comments total. Showing first comments.
0 reply
BWhite03 10 Jan 16, 2006 02:54 PM

hey hey much better than ver 2... its a lot easier and it sounds just as good. nice tab

0 reply
mavis2005 36 Feb 05, 2006 04:27 PM

This Tab Is Perfect..but its in Drop D Tuning..I know cause i have the video i watch it each day..this is how u play it

E|----------------------------------------------------------|
B|----------0-----------------0-------------------0---------|
G|------5-----5---5-------5-----5---5---------5-----5---5---|
D|----5---5-----5-------5---5-----5---------5---5-----5-----|
A|--3-------------------------------------0-----------------|
D|-------------------6--------------------------------------|

E|------------------------|
B|-------------0----------|
G|--------5-------5---5---|
D|------5---5-------5-----|
A|------------------------|
D|---3--------------------|

0 reply
mavis2005 36 Feb 06, 2006 10:37 AM

E|------------------------|
B|-------------3----------|
G|--------5-------5---5---|
D|------5---5-------5-----|
A|------------------------|
D|---3--------------------|

OOPS MADE A MISTAKE JUST NOTICE THAT SORRY

guest
You may want to rate the tab now too:
select rating
Wanna post a correction for this tab? Suggest correction