Oops, an error
Loading. Please wait.
We have an official Far Away tab made by UG professional guitarists. Check out the tab »
×
76,897 views 21 this week
22 commentsread comments
1 2 3 4 5
x 37
add to favorites
×
Save as Personal and add changes to this tab that will be seen only by you. Learn more ›
×
You can save this tab as Personal to edit and correct it or add notes. All changes will be seen only by you. Learn more »
launch autoscroll
font size
0
reset
how to read this tab
guitar tuner
backing track
0:00
0:00
edit
Autoscroll
slow
fast
+/-
esc
set tempo
stop
Band- Nickelback
Song- Far Away
Album- For All The Right Reasons
Tabbed By- Kyle LaFleur (Guitarman1507)

This is by far, the best Nickelback song ever.
Since none of the tabs on here sounded right, or were in the right tuning, 
I decided I'd tab it out correctly on my own. It's about 100% correct, Enjoy!

Tuning: Half Step Down 

[Intro]

D#|-------------------------------------------------------------------|
A#|-----1---0h1---1-----1---0h1---1-----1---0h1---1-----1—--3h1---1---|
F#|---0---0-----0-----0---0-----0-----0---0-----0-----0---0-----0-----|
C#|-------------------------------------------------------------------|
G#|-3-------------------------------0---------------------------------|
D#|-----------------3-------------------------------1-----------------|

[Verse 1]

D#|-------------------------------------------------------------------|
A#|-----1---0h1---1-----1---0h1---1-----1---0h1---1-----1—--3h1---1---|
F#|---0---0-----0-----0---0-----0-----0---0-----0-----0---0-----0-----|
C#|-------------------------------------------------------------------|
G#|-3-------------------------------0---------------------------------|
D#|-----------------3-------------------------------1-----------------|

D#|-------------------------------------------------------------------|
A#|-----1---0h1---1-----1---0h1---1-----1---0h1---1-----1—--3h1---1---|
F#|---0---0-----0-----0---0-----0-----0---0-----0-----0---0-----0-----|
C#|-------------------------------------------------------------------|
G#|-3-------------------------------0---------------------------------|
D#|-----------------3-------------------------------1-----------------|

D#|-------------------------------------------------------------------|
A#|-----1---0h1---1-----1---0h1---1-----1---0h1---1-----1—--3h1---1---|
F#|---0---0-----0-----0---0-----0-----0---0-----0-----0---0-----0-----|
C#|-------------------------------------------------------------------|
G#|-3-------------------------------0---------------------------------|
D#|-----------------3-------------------------------1-----------------|

D#|---------0-------------0-----------1---3h1---3---------------------|
A#|-----3-----3---3-----3---3---3---1---1-----1-1---------------------|
F#|---2---2-----2-----2-------2-----------------0---------------------|
C#|-0---------------0-------------3-------------3---------------------|
G#|-------------------------------------------------------------------|
D#|-------------------------------------------------------------------|

[Chorus]

D#|--------------------------------------------------------------|
A#|--------------------------------------------------------------|
F#|-5-5-5-5-------------------------5-5-5-5----------------------|
C#|-5-5-5-5-5-5-5-5-7-7-7-7-3-3-3-3-5-5-5-5-5-5-5-5-7-7-7-3-3-3-3|
G#|-3-3-3-3-5-5-5-5-7-7-7-7-3-3-3-3-3-3-3-3-5-5-5-5-7-7-7-3-3-3-3|
D#|---------3-3-3-3-5-5-5-5-1-1-1-1---------3-3-3-3-5-5-5-1-1-1-1|

D#|--------------------------------------------------------------|
A#|--------------------------------------------------------------|
F#|-5-5-5-5-------------------------5-5-5-5----------------------|
C#|-5-5-5-5-5-5-5-5-7-7-7-7-3-3-3-3-5-5-5-5-5-5-5-5-7-7-7-3------|
G#|-3-3-3-3-5-5-5-5-7-7-7-7-3-3-3-3-3-3-3-3-5-5-5-5-7-7-7-3------|
D#|---------3-3-3-3-5-5-5-5-1-1-1-1---------3-3-3-3-5-5-5-1------|

[Pre-Verse]

D#|-------------------------------------------------------------------|
A#|-----1---0h1---1-----1---0h1---1-----1---0h1---1-----1—--3h1---1---|
F#|---0---0-----0-----0---0-----0-----0---0-----0-----0---0-----0-----|
C#|-------------------------------------------------------------------|
G#|-3-------------------------------0---------------------------------|
D#|-----------------3-------------------------------1-----------------|

[Verse 2]

D#|-------------------------------------------------------------------|
A#|-----1---0h1---1-----1---0h1---1-----1---0h1---1-----1—--3h1---1---|
F#|---0---0-----0-----0---0-----0-----0---0-----0-----0---0-----0-----|
C#|-------------------------------------------------------------------|
G#|-3-------------------------------0---------------------------------|
D#|-----------------3-------------------------------1-----------------|

D#|-------------------------------------------------------------------|
A#|-----1---0h1---1-----1---0h1---1-----1---0h1---1-----1—--3h1---1---|
F#|---0---0-----0-----0---0-----0-----0---0-----0-----0---0-----0-----|
C#|-------------------------------------------------------------------|
G#|-3-------------------------------0---------------------------------|
D#|-----------------3-------------------------------1-----------------|

D#|-------------------------------------------------------------------|
A#|-----1---0h1---1-----1---0h1---1-----1---0h1---1-----1—--3h1---1---|
F#|---0---0-----0-----0---0-----0-----0---0-----0-----0---0-----0-----|
C#|-------------------------------------------------------------------|
G#|-3-------------------------------0---------------------------------|
D#|-----------------3-------------------------------1-----------------|

D#|---------0-------------0-----------1---3h1---3---------------------|
A#|-----3-----3---3-----3---3---3---1---1-----1-1---------------------|
F#|---2---2-----2-----2-------2-----------------0---------------------|
C#|-0---------------0-------------3-------------3---------------------|
G#|-------------------------------------------------------------------|
D#|-------------------------------------------------------------------|

[Chorus]

D#|--------------------------------------------------------------|
A#|--------------------------------------------------------------|
F#|-5-5-5-5-------------------------5-5-5-5----------------------|
C#|-5-5-5-5-5-5-5-5-7-7-7-7-3-3-3-3-5-5-5-5-5-5-5-5-7-7-7-3-3-3-3|
G#|-3-3-3-3-5-5-5-5-7-7-7-7-3-3-3-3-3-3-3-3-5-5-5-5-7-7-7-3-3-3-3|
D#|---------3-3-3-3-5-5-5-5-1-1-1-1---------3-3-3-3-5-5-5-1-1-1-1|

D#|--------------------------------------------------------------|
A#|--------------------------------------------------------------|
F#|-5-5-5-5-------------------------5-5-5-5----------------------|
C#|-5-5-5-5-5-5-5-5-7-7-7-7-3-3-3-3-5-5-5-5-5-5-5-5-7-7-7-3------|
G#|-3-3-3-3-5-5-5-5-7-7-7-7-3-3-3-3-3-3-3-3-5-5-5-5-7-7-7-3------|
D#|---------3-3-3-3-5-5-5-5-1-1-1-1---------3-3-3-3-5-5-5-1------|

[Bridge]

D#|-------------------------------------------------------------------|
A#|-----1---0h1---1-----1---0h1---1-----1---0h1---1-----1—--3h1---1---|
F#|---0---0-----0-----0---0-----0-----0---0-----0-----0---0-----0-----|
C#|-------------------------------------------------------------------|
G#|-3-------------------------------0---------------------------------|
D#|-----------------3-------------------------------1-----------------|

D#|-------------------------------------------------------------------|
A#|-----1---0h1---1-----1---0h1---1-----1---0h1---1-----1—--3h1---1---|
F#|---0---0-----0-----0---0-----0-----0---0-----0-----0---0-----0-----|
C#|-------------------------------------------------------------------|
G#|-3-------------------------------0---------------------------------|
D#|-----------------3-------------------------------1-----------------|

D#|---------0-------------0-----------1---3h1---3---------------------|
A#|-----3-----3---3-----3---3---3---1---1-----1-1---------------------|
F#|---2---2-----2-----2-------2-----------------0---------------------|
C#|-0---------------0-------------3-------------3---------------------|
G#|-------------------------------------------------------------------|
D#|-------------------------------------------------------------------|

[Chorus]

D#|------------------------------------------------------------------|
A#|------------------------------------------------------------------|
F#|-5-5-5-5-------------------------5-5-5-5--------------------------|
C#|-5-5-5-5-5-5-5-5-7-7-7-7-3-3-3-3-5-5-5-5-5-5-5-5-7----------------|
G#|-3-3-3-3-5-5-5-5-7-7-7-7-3-3-3-3-3-3-3-3-5-5-5-5-7----------------|
D#|---------3-3-3-3-5-5-5-5-1-1-1-1---------3-3-3-3-5----------------|


D#|------------------------------------------------------------------|
A#|------------------------------------------------------------------|
F#|-7-7-7-7-------------------------7-7-7-7--------------------------|
C#|-7-7-7-7-7-7-7-7-9-9-9-9-5-5-5-5-7-7-7-7-7-7-7-7-9-9-9-9-5-5-5-5--|
G#|-5-5-5-5-7-7-7-7-9-9-9-9-5-5-5-5-5-5-5-5-7-7-7-7-9-9-9-9-5-5-5-5--|
D#|---------5-5-5-5-7-7-7-7-3-3-3-3---------5-5-5-5-7-7-7-7-3-3-3-3--|

D#|------------------------------------------------------------------|
A#|------------------------------------------------------------------|
F#|-7-7-7-7-------------------------7-7-7-7--------------------------|
C#|-7-7-7-7-7-7-7-7-9-9-9-9-5-5-5-5-7-7-7-7-7-7-7-7-9-9-9-9-5-5-5-5--|
G#|-5-5-5-5-7-7-7-7-9-9-9-9-5-5-5-5-5-5-5-5-7-7-7-7-9-9-9-9-5-5-5-5--|
D#|---------5-5-5-5-7-7-7-7-3-3-3-3---------5-5-5-5-7-7-7-7-3-3-3-3--|

D#|------------------------------------------------------------------|
A#|------------------------------------------------------------------|
F#|-7-7-7-7-------------------------7-7-7-7--------------------------|
C#|-7-7-7-7-7-7-7-7-9-9-9-9-5-5-5-5-7-7-7-7-7-7-7-7-9-9-9-9-5-5-5-5--|
G#|-5-5-5-5-7-7-7-7-9-9-9-9-5-5-5-5-5-5-5-5-7-7-7-7-9-9-9-9-5-5-5-5--|
D#|---------5-5-5-5-7-7-7-7-3-3-3-3---------5-5-5-5-7-7-7-7-3-3-3-3--|

D#|------------------------------------------------------------------|
A#|------------------------------------------------------------------|
F#|-7-7-7-7-------------------------7-7-7-7--------------------------|
C#|-7-7-7-7-7-7-7-7-9-9-9-9-5-5-5-5-7-7-7-7-7-7-7-7-9-9-9-9-5-5-5-5--|
G#|-5-5-5-5-7-7-7-7-9-9-9-9-5-5-5-5-5-5-5-5-7-7-7-7-9-9-9-9-5-5-5-5--|
D#|---------5-5-5-5-7-7-7-7-3-3-3-3---------5-5-5-5-7-7-7-7-3-3-3-3--|

D#|------------------------------------------------------------------|
A#|------------------------------------------------------------------|
F#|-7-7-7-7-------------------------7--------------------------------|
C#|-7-7-7-7-7-7-7-7-9-9-9-9-5-5-5-5-7--------------------------------|
G#|-5-5-5-5-7-7-7-7-9-9-9-9-5-5-5-5-5--------------------------------|
D#|---------5-5-5-5-7-7-7-7-3-3-3-3----------------------------------|

"Far Away" Lyrics

This time, This place
Misused, Mistakes
Too long, Too late
Who was I to make you wait
Just one chance
Just one breath
Just in case there's just one left
'Cause you know,
you know, you know

That I love you
I have loved you all along
And I miss you
Been far away for far too long
I keep dreaming you'll be with me
and you'll never go
Stop breathing if
I don't see you anymore

On my knees, I'll ask
Last chance for one last dance
'Cause with you, I'd withstand
All of hell to hold your hand
I'd give it all
I'd give for us
Give anything but I won't give up
'Cause you know,
you know, you know

That I love you
I have loved you all along
And I miss you
Been far away for far too long
I keep dreaming you'll be with me
and you'll never go
Stop breathing if
I don't see you anymore

So far away
Been far away for far too long
So far away
Been far away for far too long
But you know, you know, you know

I wanted
I wanted you to stay
'Cause I needed
I need to hear you say
That I love you
I have loved you all along
And I forgive you
For being away for far too long
So keep breathing
'Cause I'm not leaving you anymore
Believe it
Hold on to me and, never let me go
Keep breathing
'Cause I'm not leaving you anymore
Believe it
Hold on to me and, never let me go
Keep breathing
Hold on to me and, never let me go
Keep breathing
Hold on to me and, never let me go



************************************

| h  Hammer-on

************************************

            
            
Suggest correction
Creating personal tab
Creating personal tab
You can edit any tab online and save it as your Personal.

You can edit, replace or remove any tab part or add personal notes – all changes will be seen only by you.

Personal tabs can be accessed anytime from any device, even offline.
Learn more »
comments
print report bad tab
22 comments total. Showing first comments.
0 reply
emberlylp 10 Mar 06, 2006 11:51 PM

you do know that there is a second guitar during the choris

0 reply
ChiSoxn2k5 10 Apr 04, 2006 01:35 PM

hey do u have to have ur thumb on the frist fret E string on the intro part???

0 reply
ChiSoxn2k5 10 Apr 04, 2006 06:29 PM

whats a half step down tuning????

guest
You may want to rate the tab now too:
select rating
Wanna post a correction for this tab? Suggest correction