Oops, an error
Loading. Please wait.

Fight For All The Wrong Reasons tab

version 5
version 5

Interactive

2,833 views 3 this week
3 commentsread comments
1 2 3 4 5
2 more votes to show rating
add to favorites
×
Save as Personal and add changes to this tab that will be seen only by you. Learn more ›
×
You can save this tab as Personal to edit and correct it or add notes. All changes will be seen only by you. Learn more »
launch autoscroll
font size
0
reset
how to read this tab
guitar tuner
backing track
0:00
0:00
edit
Autoscroll
slow
fast
+/-
esc
set tempo
stop
Difficulty
TiTULO: Fight for all the Wrong Reasons
Artista: Nickelback
Album: All the Right Reasons
Track: 2
Tabbed by: Carlos Alejandro Torrez.(blade1shadow@hotmail.com)
AFINACION STANDARD (E A D G B e)
NOTA:Esta es la version mejorada y con todas las partes de la cancion, para mi esta 100%
salvo algunos arreglos minimos pero se oye bien)
(this is my final version of this song is 100% correct too me)

Bueno esta es mi versión y primera tablatura (Tab), como ven se puede tocar en la
Standard de Mi (E) es un poco difícil y me costo mucho sacar este tema de nickelback 
con
practica se vuelve fácil, suena muy bien inténtenlo no pierden nada haciéndolo ^_^ a mi 
de vista suena igual que la cancion.(Well this is my version and my first tablature,
very hard but whit the practice as become easy, oh sorry I don’t speaking English very 
o_O`)

INTRO:x2

e|------------------------------------------------------------------||
B|------------------------------------------------------------------||
G|--------------8---------------------------------8-10-8-10-11-10-8-||
D|-10-10-10-X-X-8--8-10-8-10---------3-3-3-X-X-8--8-10-8-10-11-10-8-||
A|-10-10-10-X-X-6--8-10-8-10---------3-3-3-X-X-8--6--8-6--8--9--8-6-||
E|-8- 8- 8 -X-X----6--8-6--8-11-8-6--1-1-1-X-X-6--------------------||
           [PM]                             [PM]
||------------------------------------------------------------------||
O tambien se puede tocar asi pero la tabaltura de arriba se oye algo major mientras si
sacana la de arriba pueden practicar con esta. (Or…but the top Tab is more correct this
the easy tab for novice)

   e|-------------------------------------------------------||
   B|-------------------------------------------------------||
   G|----------8--------------------------------------------||
   D|-10-10-10-8-----------------3-3-3-8--------------------||
   A|-10-10-10-6----------6------3-3-3-8--6--8-6--8--9--8-6-||
   E|-8- 8- 8-----6-8-6-8---8-6--1-1-1-6--------------------||

||-----------------------------------------------------------------||

Continuando la cancion… (Continued the song)

e|-3-3-----6-6--------------3---------------------||
B|-----6-6----4-3-4-3-3-6----4-4-6-6-4-3-4-3------||
G|------------------------------------------------|| x2
D|------------------------------------------------||
A|------------------------------------------------||
E|------------------------------------------------||


BAJO (BASS) Y BATERIA:

Well I wanted you
I wanted no one else
I thought it through
I got you to myself
you got off

e|-----------------||
B|-----------------||
G|-----------------||
D|-----1---3-1---1-|| X4
A|-3-3---3-----3---||
E|-----------------||

Every time you got on to me
I got caught up
in favourable slavery
was it wrong? Was it wrong?
e|------------------------||
B|------------------------||
G|------------------------||
D|-10-10-10-10-8-8-8-8----||
A|-10-10-10-10-8-8-8-8----||
E|-8--8--8--8--6-6-6-6----||

[Coro:] x5

e|------------------------------------------------------------------||
B|------------------------------------------------------------------||
G|--------------8---------------------------------8-10-8-10-11-10-8-||
D|-10-10-10-X-X-8--8-10-8-10---------3-3-3-X-X-8--8-10-8-10-11-10-8-||
A|-10-10-10-X-X-6--8-10-8-10---------3-3-3-X-X-8--6--8-6--8--9--8-6-||
E|-8- 8- 8 -X-X----6--8-6--8-11-8-6--1-1-1-X-X-6--------------------||
           [PM]                             [PM]


I guess it wasn't really right
I guess it wasn't meant to be
It didn't matter what they said
'Cause we were good in bed
I guess I stuck around so I could watch us fight
for all the wrong reasons
No, it didn't matter what I tried
It's just a little hard to leave
When you're going down on me
I guess I stuck around so I could watch us fight
for all the wrong reasons

PARTE 2:
BAJO (BASS) Y BATERIA:

Well you know my friends
well they know your enemies
I'd pretend
not to hear what they said to me
'Cause I got off

e|-----------------||
B|-----------------||
G|-----------------||
D|-----1---3-1---1-|| X4
A|-3-3---3-----3---||
E|-----------------||

Every time you got on to me
was it wrong
to go along with insanity?
Was it wrong? Was it wrong?
e|------------------------||
B|------------------------||
G|------------------------||
D|-10-10-10-10-8-8-8-8----||
A|-10-10-10-10-8-8-8-8----||
E|-8--8--8--8--6-6-6-6----||


[Coro:] x5

e|------------------------------------------------------------------||
B|------------------------------------------------------------------||
G|--------------8---------------------------------8-10-8-10-11-10-8-||
D|-10-10-10-X-X-8--8-10-8-10---------3-3-3-X-X-8--8-10-8-10-11-10-8-||
A|-10-10-10-X-X-6--8-10-8-10---------3-3-3-X-X-8--6--8-6--8--9--8-6-||
E|-8- 8- 8 -X-X----6--8-6--8-11-8-6--1-1-1-X-X-6--------------------||
           [PM]                             [PM]

e|-------------------------------||
B|-------------------------------||
G|-------------10-10-10-10-------||
D|-10-10-10-10-10-10-10-10-------|| X4
A|-10-10-10-10-8--8--8--8--------||
E|-8--8--8--8--------------------||

e|--------------------------------||
B|--------------------------------||
G|-------------10-10-10-10--------||
D|-10-10-10-10-10-10-10-10-----6-8|| X2
A|-10-10-10-10-8--8--8--8--8-8----||
E|-8--8--8--8---------------------||

Guitarra num.2 (guitar number.2)

e|-------------------------13----13-------------------13----13--- ||
B|-13-16-13-16-13-16-13-16----16----16-16-13-16-13-16----16----16-||
G|----------------------------------------------------------------||x2
D|----------------------------------------------------------------||
A|----------------------------------------------------------------||
E|----------------------------------------------------------------||

e|---------------------------------||
B|---------------------------------||
G|---------------------------------||
D|---------------------------------|| X6
A|-----6-8-----6-8-------------8-6-||
E|-8-8-----8-8-----8-8-6-8-8-8-----||

e|-------------------------------------------||
B|-------------------------------------------||
G|-------------------------------------------||
D|-10-10-10-10-8-8-8-8---10-10-10-10-8-8-8-8-||
A|-10-10-10-10-8-8-8-8---10-10-10-10-8-8-8-8-||
E|-8--8--8--8--6-6-6-6---8--8--8--8--6-6-6-6-||

e|------------------------||
B|------------------------||
G|------------------------||
D|-10-10-10-10-8-8-8-8----||
A|-10-10-10-10-8-8-8-8----||
E|-8--8--8--8--6-6-6-6----||
 [PM]                  [PM]

I guess it wasn't what I wanted
wasn’t really what I thought
Thought it was the day I got
I want it all to go away(x4)

Sigue el palmute con la guitarra uno y luego entra la guitarra numero 2(still continue
palm mute and later enters the guitar two whit this)

e|-3-3-----6-6--------------3---------------------||
B|-----6-6----4-3-4-3-3-6----4-4-6-6-4-3-4-3------||
G|------------------------------------------------|| x2
D|------------------------------------------------||
A|------------------------------------------------||
E|------------------------------------------------||

e|------------------------||
B|------------------------||
G|------------------------||
D|-10-10-10-10-8-8-8-8----||
A|-10-10-10-10-8-8-8-8----||
E|-8--8--8--8--6-6-6-6----||

[Coro]
e|------------------------------------------------------------------||
B|------------------------------------------------------------------||
G|--------------8---------------------------------8-10-8-10-11-10-8-||
D|-10-10-10-X-X-8--8-10-8-10---------3-3-3-X-X-8--8-10-8-10-11-10-8-||
A|-10-10-10-X-X-6--8-10-8-10---------3-3-3-X-X-8--6--8-6--8--9--8-6-||
E|-8- 8- 8 -X-X----6--8-6--8-11-8-6--1-1-1-X-X-6--------------------||
           [PM]                             [PM]

--------------------||
--------------------||
--8-10-8-10-10-8----||
--8-10-8-10-10-8-10-||
--6--8-6--8--8-6-10-||
-----------------8--||

The end  cualquier pregunta o arreglo a mi email por favor (any question or
else to my email please)
blade1shadow@hotmail.com

Atte: Carlos Torrez

Pd :( porfa no copies este tab) please don’t copy this tab.

            
            
Suggest correction
Creating personal tab
Creating personal tab
You can edit any tab online and save it as your Personal.

You can edit, replace or remove any tab part or add personal notes – all changes will be seen only by you.

Personal tabs can be accessed anytime from any device, even offline.
Learn more »
Give kudos to tab author, rate the tab!
1 2 3 4 5
comments
print report bad tab
3 comments total.
0 reply
TheClincher 102 Dec 08, 2006 04:56 AM

dude! ingles por favor!

0 reply
tommilee 161 Dec 08, 2006 09:24 AM

ahhhhhhhh french! or something lol

0 reply
spencer Cr 507 Dec 09, 2006 08:54 AM

wow dude you did a good job tabing but uh, could you please if posible speak english, no offence. thanx for translating some parts anyway.

guest
Wanna post a correction for this tab? Suggest correction