Oops, an error
Loading. Please wait.

Figured You Out Bass Tab

version 2
version 2

Whole song

Interactive

3,351 views 6 this week
3 commentsread comments
1 2 3 4 5
worth learning
x 2
add to favorites
launch autoscroll
font size
0
reset
guitar tuner
Tab Pro tools
  • play this tab
  • loop segment
  • change instrument
  • show fretboard
  • metronome
Autoscroll
slow
fast
+/-
esc
set tempo
stop
-------------------------------------------------------------------------------
			     Figured You Out - Nickelback
-------------------------------------------------------------------------------

Tabbed By : Nigel Vaillancourt
e-mail: nigel_vai@hotmail.com

Tuning: C-G-C-F

Verse
F|-----------------------------------------------------------------------------------------------|
C|-----------------------------------------------------------------------------------------------|
G|-----------------------------------------------------------------------------------------------|
C|-0-0-0-0-0--0-0-0-0-0-0--0-3-3--3-3-3--3-3-3--3-3-3--3-5-5--5-5-5--5-5-5--5-5-5-5-0-0-0-0-0-0-0|
 x2

Chorus 1
G|-------------------------------------------------------------------------------|
D|-------------------------------------------------------------------------------|
A|----------3-3-3-3-3-3-1-1-1-1--------------------------------------------------|
E|-0-0-0-0-----------------------3-0-0--0-0--0-0---------------------------------| x2

Chorus 2 is the same as chorus one but with an elongated open section

Bridge
G|-----------------------------------------------------------------------------|
D|-----------------------------------------------------------------------------|
A|-----------------------------------------------------------------------------|
E|-0-0-3-0-3-5-x3--3-3--3-3--3-3--3-3--5-5--5-5--5-5-5-5--0-0-3-0-3-5----------|
            p                                                                            
                          p

Verse 3 is just bass and drums

Outro is the same as the bridge

Song Order:
Verse 1
Chorus 1
Verse 2
Chorus 2
Bridge
Verse 3
Chorus 3
Outro

| /  slide up
| \  slide down
| h  hammer-on
| p  pull-off
| ~  vibrato
| +  harmonic
| x  Mute note
===============================================================================
comments
We did not receive enough feedback on this tab! Please rate:
print report bad tab
1 2 3 4 5
3 comments total.
0 reply
Blackielicious wrote on May 25 2011, 06:15 pm

minor corrections other than this great job

Verse
F|-----------------------------------------------------------------------------------------------|
C|-----------------------------------------------------------------------------------------------|
G|-----------------------------------------------------------------------------------------------|
C|-0-0-0-0-0--0-0-0-0-0-0--0-3-3--3-3-3--3-3-3--3-3-3--3-5-5--5-5-5--5-5-5--5-5-3-3-0-0-0-0-0-0-0|

Chorus 1
G|-------------------------------------------------------------------------------|
D|-------------------------------------------------------------------------------|
A|----------3-3-3-3-3-3----------------------------------------------------------|
E|-0-0-0-0--------------5-5-5-5------3-0-0--0-0--0-0-----------------------------|

0 reply
Selina Finsel wrote on January 26 2013, 02:27 pm

Was tab surfing for fun and came across your tab. If I may say a couple of things...you listed the tuning as CGCF but the rest of the tab is standard tuning. That would mean I would have to pick up another bass to play the chorus etc. The other thing is the chorus starts on the A# not an E. I play it on the 5 string and it would be the 1st fret on A string, 1st fret on E, 4th fret B then down to 1st fret B. If you can apply that to the 4string with the CGFC tuning for the whole tab it would be a good one. Hope this was helpful and KEEP ROCKING!!

0 reply
KennyM79 wrote on June 1 2015, 04:03 pm

Lack of accuracy. Tab incomplete. There are only three lines of tabs here, and it's missing a lot of notes. On the nit-picky side of things, Nickelback uses a 5-string bass.

I want to post or [tab]
guest
You may want to rate the tab now too:
select rating
Please do not post tabs as comments. Select "correction" instead!