Oops, an error
Loading. Please wait.

Figured You Out Tab

version 5
version 5

Whole song

Interactive

2,610 views 3 this week
2 commentsread comments
1 2 3 4 5
2 more votes to show rating
add to favorites
launch autoscroll
font size
0
reset
how to read this tab
guitar tuner
backing track
0:00
0:00
×
Best way to learn
"Figured You Out"
Autoscroll
slow
fast
+/-
esc
set tempo
stop
Author
Figured You Out - Nickelback
Drop C Tuning (Drop D and one full step down)
Tabbed By YoYoJoe

Verse
|---------------------------------------------------------------------|
|-----3-3-------3-3-3-------3-3-3-------3-3-3-------------------------|
|-----2-2-------2-2-2-------2-2-2-------2-2-2-------------------------|
|-----0-0-------0-0-0-------0-0-0-------0-0-0-------3-3-3-------3-3-3-|
|-10\-0-0-------0-0-0-------0-0-0-------0-0-0-------3-3-3-------3-3-3-|
|-10\-0-0--0-0--0-0-0--0-0--0-0-0--0-0--0-0-0--0-0--3-3-3--3-3--3-3-3-|
PM         ___         ___         ___         ___         ___

|------------------------------------------------------------------------|
|------------------------------------------------------------------------|
|------------------------------------------------------------------------|
|------3-3-3-------3-3-3-------5-5-5-------5-5-5-------5-5-5-------5-5-5-|
|------3-3-3-------3-3-3-------5-5-5-------5-5-5-------5-5-5-------5-5-5-|
|-3-3--3-3-3--3-3--3-3-3--3-3--5-5-5--5-5--5-5-5--5-5--5-5-5--5-5--5-5-5-|
PM___         ___         ___         ___         ___         ___

|----------------------------------|
|--------3-3-------3-3-3---------3-|
|--------2-2-------2-2-2---------2-|
|-3-3-3--0-0-------0-0-0---------0-|
|-3-3-3--0-0-------0-0-0---------0-|
|-3-3-3--0-0--0-0--0-0-0--0-0-0--0-|
PM            ___         _____  *On the second time dont play this chord

(In second part, Guitar one)
|--------|
|--------|
|--------|
|--------|
|---/10\-|
|-0-/10\-| Then continue with the rest of the verse

(In second part, Guitar two)
|------------------------------------------------------------------|
|------------------------------------------------------------------|
|-13-12-13-12-15--15-12--12-12-12--13-12-13-12-15--15-12--12-12-12-|
|-x--x--x--x--x---x--x---x--x--x---x--x--x--x--x---x--x---x--x--x--|
|-11-10-11-10-13--13-10--10-10-10--11-10-11-10-13--13-10--10-10-10-|
|------------------------------------------------------------------|

|------------------------------------------------------------------|
|------------------------------------------------------------------|
|-16-15-16-15-18--18-15--15-15-15--16-15-16-15-18--18-15--15-15-15-|
|-x--x--x--x--x---x--x---x--x--x---x--x--x--x--x---x--x---x--x--x--|
|-14-13-14-13-16--16-13--13-13-13--14-13-14-13-16--16-13--13-13-13-|
|------------------------------------------------------------------|

|-------------------------------------------------------|
|-------------------------------------------------------|
|-15-15-15-15---15-15-15-15---15-15-15-15---15-15-15-15-|
|-x--x--x--x----x--x--x--x----x--x--x--x----x--x--x--x--|
|-13-13-13-13---13-13-13-13---13-13-13-13---13-13-13-13-|
|-------------------------------------------------------|

|---------------------------------|
|---------------------------------|
|-13-12-13-12-15--15-12--12-12-12-|
|-x--x--x--x--x---x--x---x--x--x--|
|-11-10-11-10-13--13-10--10-10-10-|
|---------------------------------|

Chorus
|--------------------------------------------------------------------------|
|--------------------------------------------------------------------------|
|------------------------------------------------------8-8-8-8-----8-8-8-8-|
|-5-5-5-5-5-5-5-5-8-8-8-8-8-8-8-8-6-6-6-6-6-6-6-6------x-x-x-x-----x-x-x-x-|
|-5-5-5-5-5-5-5-5-8-8-8-8-8-8-8-8-6-6-6-6-6-6-6-6-0-0--6-6-6-6--0--6-6-6-6-|
|-5-5-5-5-5-5-5-5-8-8-8-8-8-8-8-8-6-6-6-6-6-6-6-6-0-0-----------0----------|
PM_______                                         ************************ 
                                           Repeat this part a few more times
                                            on the second half of the chorus

Solo 1
|-------------------------------------|
|-------------------------------------|
|-------------------------------------|
|-------------------{----------5p3}---|
|-------------------{--3-3-3-3----}---|
|-0-{0-2p1p0-2p0}X3-{0-3-3-3-3----}X4-|

|----------------------------------------|
|----------------------------------------|
|----------------------------------------|
|-{----------5p3}------------------------|
|-{--2-2-2-2----}----0-------------------|
|-{0-2-2-2-2----}X4----0-{0-2p1p0-2p0}X2-|
Both Guitars ___

Third Verse

|---------------------------------------------------------|
|---------------------------------------------------------|
|---------------------------------------------------------|
|---------------------------------------------------------|
|---------------------------------------------------------|
|-0-0--3-0--0-0-0-3-0--0-0-0--3-3--5-3--3-3-3--5-3--3-3-3-|
PM_______________________________________________________

|---------------------------------------------------------|
|---------------------------------------------------------|
|---------------------------------------------------------|
|---------------------------------------------------------|
|---------------------------------------------------------|
|-5-5--7-5--5-5-5--7-5--5-5-5--0-0--3-0--0-0-0-3-0--0-0-0-|
PM_______________________________________________________

Outro Solo
|---------------------------------------------------|
|---------------------------------------------------|
|--------------------------------------------5-5--5-|
|--------------------------------2-2--2-2-2--3-3--3-|
|--------------------------------2-2--2-2-2--3-3--3-|
|-0--0-2p1p0-2p0--0-2p1p0-2p0--0-2-2--2-2-2--3-3--3-|
Suggest correction
Give kudos to tab author, rate the tab!
1 2 3 4 5
comments
print report bad tab
2 comments total.
0 reply
yoyojoe 281 Jan 26, 2005 07:00 PM

i screwed up in the first part of the verse it should b:

--------------------------------------------------------------------|
----3-3-------3-3-3-------3-3-3-------3-3-3-------------------------|
----2-2-------2-2-2-------2-2-2-------2-2-2-------------------------|
----0-0-------0-0-0-------0-0-0-------0-0-0-------3-3-3-------3-3-3-|
10\-0-0-------0-0-0-------0-0-0-------0-0-0-------3-3-3-------3-3-3-|
10\-0-0--0-0--0-0-0--0-0--0-0-0--0-0--0-0-0--0-0--3-3-3--3-3--3-3-3-|
PM ___ ___ ___ ___ ___

0 reply
yoyojoe 281 Jan 26, 2005 07:00 PM

damit that didnt work either, all the bottom string notes should be palm muted

guest
You may want to rate the tab now too:
select rating
Wanna post a correction for this tab? Suggest correction