Oops, an error
Loading. Please wait.

Follow You Home Bass Tab

version 2
version 2

Whole song

Interactive

632 views 1 this week
no commentswrite comment
1 2 3 4 5
please rate
add to favorites
launch autoscroll
font size
0
reset
guitar tuner
Tab Pro tools
  • play this tab
  • loop segment
  • change instrument
  • show fretboard
  • metronome
Autoscroll
slow
fast
+/-
esc
set tempo
stop
Contributor
Difficulty
intermediate
Follow You Home - Nickelback
Bass Tab - For 5 String Bass Guitars
Tabbed By: Cripple911

 ===================
|| = - Tie or Hold ||
|| \ - Slide Down  ||
|| R - Rest        ||
|| PM - Palm Mute  ||
|| / - Slide Up    ||
 ===================

*Note* Each ||---|---|| is 2 bars (4 counts each) which are measured in 32nd notes
**Note** Titles (//VERSE//) may be incorrect in certain parts but the structure/
order tab is written in is correct

//First 3 Bars are SILENT//

//INTRO PART 1//
G||-----------------------------------||
D||-----------------------------------||
A||----------------------1------------||
E||--3---1---3---1---3-------3---1----||
B||-----------------------------------||

//INTRO PART 2// X2
G||-----------------------------------|-----------------------------------||
D||-----------------------------------|-----------------------------------||
A||--------------1---1----------------|----------------------3---1--------||
E||--3---1---3-----------1---3--------|-----------------------------------||
B||-----------------------------------|--X---1----------------------------||

G||-----------------------------------|-----------------------------------||
D||-----------------------------------|-----------------------------------||
A||--------------1---1----------------|----------------------1---3--------||
E||--3---1---3-----------1---3--------|-----------------------------------||
B||-----------------------------------|--X---4----------------------------||

//VERSE// X5
G||-----------------------------------|-----------------------------------||
D||-----------------------------------|-----------------------------------||
A||--------------1---1----------------|----------------------3---1--------||
E||--3---1---3-----------1---3--------|-----------------------------------||
B||-----------------------------------|--X---1----------------------------||

G||-----------------------------------|-----------------------------------||
D||-----------------------------------|-----------------------------------||
A||--------------1---1----------------|----------------------1---3--------||
E||--3---1---3-----------1---3--------|-----------------------------------||
B||-----------------------------------|--X---1----------------------------||

//PRE-CHORUS//
G||-----------------------------------|-----------------------------------||
D||--1---1---1---1---1---1---1---1----|--1---1---1---1---1-------3---1----||
A||-----------------------------------|----------------------3------------||
E||-----------------------------------|-----------------------------------||
B||-----------------------------------|-----------------------------------||

G||-----------------------------------|-----------------------------------||
D||-----------------------------------|-----------------------------------||
A||--3-----------3-------1---3=======-|--====3-----------3-------3---3----||
E||-----------------------------------|-----------------------------------||
B||-----------------------------------|-----------------------------------||

//VERSE//

//PRE-CHORUS//

//CHORUS//
G||-----------------------------------|-----------------------------------||
D||-----------------------------------|-----------------------------------||
A||-----------------------------------|-----------------------------------||
E||--3======================SR--------|------------------1---1---1---1----||
B||-----------------------------------|------1---1---1--------------------||
                                                                             [PLAY TWICE BUT]
G||-----------------------------------|-----------------------------------|| [ON 2ND ROUND  ]
D||-----------------------------------|-----------------------------------|| [LEAVE OUT LAST]
A||--1======================SR--------|------------------3---3---3---3----|| [BAR           ]
E||-----------------------------------|------1---1---1--------------------||
B||-----------------------------------|-----------------------------------||

//INTRO PART 1//

//INTRO PART 2// X3

//VERSE// X4

//PRE-CHORUS//

//VERSE//

//PRE-CHORUS//

//CHORUS//

//INTRO PART 1//

//INTRO PART 2//

//NEXT 8 BARS ARE SILENT//

//SOLO//                           [PM]
G||-----------------------------------|-----------------------------------||
D||-----------------------------------|-----------------------------------||
A||--------------1---1----------------|-----------------------------------|| X2
E||--3---1---3-----------1---3---R----|-----------------------------------||
B||-----------------------------------|-----------------------------------||
                                   [PM]
G||-----------------------------------|-----------------------------------||
D||-----------------------------------|-----------------------------------||
A||--------------1---1----------------|---------------------/3---1--------||
E||--3---1---3-----------1---3---R----|-----------------------------------||
B||-----------------------------------|-----------------------------------||

G||-----------------------------------|-----------------------------------||
D||-----------------------------------|-----------------------------------||
A||--R--------------------------------|----------------------1---3--------||
E||-----------------------------------|-----------------------------------||
B||-----------------------------------|--X---4----------------------------||

//VERSE// X2

//CHORUS//

//INTRO PART 1//

//VERSE// X2

//OUTRO//
G||-----------------------------------||
D||-----------------------------------||
A||--------------1---1----------------||
E||--3---1---3-----------1---3---R----||
B||-----------------------------------||

//END SONG//
comments
We did not receive enough feedback on this tab! Please rate:
print report bad tab
1 2 3 4 5
I want to post or [tab]
guest
You may want to rate the tab now too:
select rating
Please do not post tabs as comments. Select "correction" instead!