Oops, an error
Loading. Please wait.

Follow You Home tab

version 4
version 4

Whole song

Interactive

10,831 views 6 this week
4 commentsread comments
1 2 3 4 5
x 9
add to favorites
×
Save as Personal and add changes to this tab that will be seen only by you. Learn more ›
×
You can save this tab as Personal to edit and correct it or add notes. All changes will be seen only by you. Learn more »
launch autoscroll
font size
0
reset
how to read this tab
guitar tuner
edit
Autoscroll
slow
fast
+/-
esc
set tempo
stop
Follow You Home - Nickelback
Tabbed by: Adam Brown   
Email: charglitch@aol.com       
Tuning: Drop D (low to high DADGBE)

[Intro]
e|---------------------------------------------------------------------------|
B|---------------------------------------------------------------------------|
G|------------------------------------5--5\3---------------------3/5\--------|
D|-3-5-3-5-3-5-8-5-3----5-3-5-8-3-5---5--5\3---5-3-5-8-3-5---1---3/5\--------|
A|-3-5-3-5-3-5-8-5-3----5-3-5-8-3-5---3--3\1---5-3-5-8-3-5---1---1/3\--------|
D|-3-5-3-5-3-5-8-5-3----5-3-5-8-3-5------------5-3-5-8-3-5---1---------------|
                       |^^^^^^^^^^^^^^^^^^^^^^^^^^^^^^^^^^^^^^^^^^^^^|
                                  Play This Part Twice

[First Solo](0:21)
e|---------------------------------------------------------------------------|
B|----------------------------3h6-6h8-8h11-11h13-13h15-13p11-13h15-13p11-----|
G|----3--------3--------3h5p3--------------------------------------------12--|
D|--5---5----5---5----5------------------------------------------------------|
A|---------------------------------------------------------------------------|
D|---------------------------------------------------------------------------|

[Verse](0:41)
e|---------------------------------------------------------------------------|
B|---------------------------------------------------------------------------|
G|---------------5--5\3-----------------5---3/5\-----------------------------|
D|-5-3-5-8-3-5---5--5\3---5-3-5-8-3-5---5---3/5\-----------------------------|
A|-5-3-5-8-3-5---3--3\1---5-3-5-8-3-5---3---1/3\-----------------------------|
D|-5-3-5-8-3-5------------5-3-5-8-3-5----------------------------------------|
   x x x x x x            x x x x x x 
   
  |^^^^^^^^^^^^^^^^^^^^^^^^^^^^^^^^^^^^^^^^^^^^^^|
               Play This Part Twice

[Bridge](0:55)
e|---------------------------------------------------------------------------|
B|---------------------------------------------------------------------------|
G|--------5--5-----------------5--5\3-----------------5--3/5\-----------5--5-|
D|-1--1---5--5---5-3-5-8-3-5---5--5\3---5-3-5-8-3-5---5--3/5\----1--1---5--5-|
A|-1--1---3--3---5-3-5-8-3-5---3--3\1---5-3-5-8-3-5---3--1/3\----1--1---3--3-|
D|-1--1----------5-3-5-8-3-5------------5-3-5-8-3-5--------------1--1--------|

[Chrous](1:15)              
e|---------------------------------------------------------------------------|
B|---------------------------------------------------------------------------|
G|------5--5\3----------5\3---------------5--5\3-----------------------------|
D|-5\---5--5\3---8\--3--5\3----------5\---5--5\3---8\--3-5-3-5-8-5-3---------|
A|-5\---3--3\1---8\--3--3\1----------5\---3--3\1---8\--3-5-3-5-8-5-3---------|
D|-5\------------8\--3---------------5\------------8\--3-5-3-5-8-5-3---------|

(1:29)
e|---------------------------------------------------------------------------|
B|---------------------------------------------------------------------------|
G|---------------5--5\3---------------------3/5\-----------------------------|
D|-5-3-5-8-3-5---5--5\3---5-3-5-8-3-5---1---3/5\-----------------------------|
A|-5-3-5-8-3-5---3--3\1---5-3-5-8-3-5---1---1/3\-----------------------------|
D|-5-3-5-8-3-5------------5-3-5-8-3-5---1------------------------------------|
  |^^^^^^^^^^^^^^^^^^^^^^^^^^^^^^^^^^^^^^^^^^^^^|
              Play This Part Twice

[Solo](1:43) 
I'm really not sure what he's playing right now, but use this to improvise
and you will be close.
e|---------------------------------------------------------------------------|
B|---------------------------------------------------------------------------|
G|-10h12-10h12-10h12-10h12-10h12-10h12-10h12-10h12-10h12-10h12-12-12-12-10---|
D|---------------------------------------------------------------------------|
A|---------------------------------------------------------------------------|
D|---------------------------------------------------------------------------|

e|---------------------------------------------------------------------------|
B|---------------------------------------------------------------------------|
G|-12-15-12-10-12-12-10-10---------------------------------------------------|
D|-------------------------12-12-10-10---------------------------------------|
A|-------------------------------------10\-----------------------------------|
D|---------------------------------------------------------------------------|

[Verse](2:03)
e|---------------------------------------------------------------------------|
B|---------------------------------------------------------------------------|
G|---------------5--5\3-----------------5---3/5\-----------------------------|
D|-5-3-5-8-3-5---5--5\3---5-3-5-8-3-5---5---3/5\-----------------------------|
A|-5-3-5-8-3-5---3--3\1---5-3-5-8-3-5---3---1/3\-----------------------------|
D|-5-3-5-8-3-5------------5-3-5-8-3-5----------------------------------------|
   x x x x x x            x x x x x x 
   
  |^^^^^^^^^^^^^^^^^^^^^^^^^^^^^^^^^^^^^^^^^^^^^^|
               Play This Part Twice

[Bridge](2:17)
e|---------------------------------------------------------------------------|
B|---------------------------------------------------------------------------|
G|--------5--5-----------------5--5\3-----------------5--3/5\-----------5--5-|
D|-1--1---5--5---5-3-5-8-3-5---5--5\3---5-3-5-8-3-5---5--3/5\----1--1---5--5-|
A|-1--1---3--3---5-3-5-8-3-5---3--3\1---5-3-5-8-3-5---3--1/3\----1--1---3--3-|
D|-1--1----------5-3-5-8-3-5------------5-3-5-8-3-5--------------1--1--------|

[Chrous](2:38)              
e|---------------------------------------------------------------------------|
B|---------------------------------------------------------------------------|
G|------5--5\3----------5\3---------------5--5\3-----------------------------|
D|-5\---5--5\3---8\--3--5\3----------5\---5--5\3---8\--3-5-3-5-8-5-3---------|
A|-5\---3--3\1---8\--3--3\1----------5\---3--3\1---8\--3-5-3-5-8-5-3---------|
D|-5\------------8\--3---------------5\------------8\--3-5-3-5-8-5-3---------|

(2:51)
e|---------------------------------------------------------------------------|
B|---------------------------------------------------------------------------|
G|---------------5--5\3---------------------3/5\-----------------------------|
D|-5-3-5-8-3-5---5--5\3---5-3-5-8-3-5---1---3/5\-----------------------------|
A|-5-3-5-8-3-5---3--3\1---5-3-5-8-3-5---1---1/3\-----------------------------|
D|-5-3-5-8-3-5------------5-3-5-8-3-5---1------------------------------------|

When I play the solo/solos at 2:58 I can't get them exact so I just improvise.
It's actually funner to do it that way. Just listen to it a couple of times 
and you will get the feel of it. 

[Rhythm Guitar](3:12)
e|---------------------------------------------------------------------------|
B|---------------------------------------------------------------------------|
G|-----------------------------------------------------------5\3-------------|
D|-5-3-5-8-3-5---------5-3-5-8-3-5---------5-3-5-8-3-5-------5\3------1--3---|
A|-5-3-5-8-3-5---------5-3-5-8-3-5---------5-3-5-8-3-5-------3\1------1--3---|
D|-5-3-5-8-3-5---------5-3-5-8-3-5---------5-3-5-8-3-5----------------1--3---|
   x x x x x x         x x x x x x         x x x x x x 

(3:38)
e|---------------------------------------------------------------------------|
B|---------------------------------------------------------------------------|
G|-5--5\---------5--5--------------------------------------------------------|
D|-5--5\---1--1--5--5--------------------------------------------------------|
A|-3--3\---1--1--3--3--------------------------------------------------------|
D|---------1--1--------------------------------------------------------------|

(3:46)
e|---------------------------------------------------------------------------|
B|---------------------------------------------------------------------------|
G|------5--5\3----------5\3---------------5--5\3-----------------------------|
D|-5\---5--5\3---8\--3--5\3----------5\---5--5\3---8\--3-5-3-5-8-5-3---------|
A|-5\---3--3\1---8\--3--3\1----------5\---3--3\1---8\--3-5-3-5-8-5-3---------|
D|-5\------------8\--3---------------5\------------8\--3-5-3-5-8-5-3---------|

(4:00)
e|---------------------------------------------------------------------------|
B|---------------------------------------------------------------------------|
G|---------------5--5\3---------------------3/5\-----------------------------|
D|-5-3-5-8-3-5---5--5\3---5-3-5-8-3-5---1---3/5\-----------------------------|
A|-5-3-5-8-3-5---3--3\1---5-3-5-8-3-5---1---1/3\-----------------------------|
D|-5-3-5-8-3-5------------5-3-5-8-3-5---1------------------------------------|

(4:14)
e|---------------------------------------------------------------------------|
B|---------------------------------------------------------------------------|
G|---------------------------------------------------------------------------|
D|-5-3-5-8-3-5---------------------------------------------------------------|
A|-5-3-5-8-3-5---------------------------------------------------------------|
D|-5-3-5-8-3-5---------------------------------------------------------------|

************************************

| /  Slide up
| \  Slide down
| h  Hammer-on
| p  Pull-off

************************************

            
            
Suggest correction
Creating personal tab
Creating personal tab
You can edit any tab online and save it as your Personal.

You can edit, replace or remove any tab part or add personal notes – all changes will be seen only by you.

Personal tabs can be accessed anytime from any device, even offline.
Learn more »
comments
print report bad tab
4 comments total. Showing first comments.
0 reply
GtR ParaDoX 82 Jun 05, 2006 06:39 PM

I think i messed up when tabbing this.. i used a note in the beginning that shouldn't be there.. the Intro in my Tab is this..
e|---------------------|
B|---------------------|
G|---------------------|
D|-3-5-3-5-3-5-8-5-3---|
A|-3-5-3-5-3-5-8-5-3---|
D|-3-5-3-5-3-5-8-5-3---|

But it should be this...

e|--------------------|
B|--------------------|
G|--------------------|
D|-5-3-5-3-5-8-5-3----|
A|-5-3-5-3-5-8-5-3----|
D|-5-3-5-3-5-8-5-3----|

Sorry guys =/

+1 reply
will_petersen 30 Feb 08, 2007 04:56 PM

It's actually in drop C, but not a big mistake. Still pretty good...

0 reply
swordofsummer40 10 Mar 26, 2016 05:35 PM

Funner isn't a word. That's the biggest mistake I could find. Great tab!

guest
You may want to rate the tab now too:
select rating
Wanna post a correction for this tab? Suggest correction