Oops, an error
Loading. Please wait.

Gotta Be Somebody Bass Tab

version 4
version 4

Whole song

Interactive

365 views 1 this week
no commentswrite comment
1 2 3 4 5
please rate
add to favorites
launch autoscroll
font size
0
reset
guitar tuner
Autoscroll
slow
fast
+/-
esc
set tempo
stop
Help us to improve Ultimate-Guitar.com Take our survey!
×
Author
Artist: Nickelback
Song: Gotta Be Somebody

5-String Bass Tab
Transcribed by Selina Finsel (selinafinsel@gmail.com)

NOTE: I played with the tab a little for fun. I am finger plucking with my middle 
finger and thumb almost at the end when there's no drums. Hope you enjoy!

VERSE:

"for the real thing"

G|----------------------------------------------------------------------|
D|----------------------------------------------------------------------|
A|----------------------------------------------------------------------|
E|------------------------------------3-3-3-3-3-3-3-3-3-3-3-3-3-3-3-3---|
B|-12\1-1-1-1-1-1-1-1-1-1-1-1-1-1-1-1-----------------------------------|

G|-------------------------------------------------------------------------------------------------|
D|-------------------------------------------------------------------------------------------------|
A|-------------------------------------------------------------------------------------------------|
E|-5-5-5-5-5-5-5-5-5-5-5-5-5-5-5-5-1-1-1-1-1-1-1-1-1-1-1-1-1-1-1-1---------------------------------|
B|-----------------------------------------------------------------3-3-3-3-3-3-3-3-3-3-3-3-3-3-3-3-|

                                     CHORUS:
G|----------------------------------------------------------------------------------------------|
D|----------------------------------------------------------------------------------------------|
A|----------------------------------------------------------------------------------------------|
E|-1-1-1-1-1-1-1-1-3-3-3-3-3-3-3-3-3--------------------------------0-0-3-3-3-3-3-3-3-3-3-3-3-3-|
B|-----------------------------------12\1-1-1-1-1-1-1-1-1-1-1-1-3-3-----------------------------|

G|-------------------------------------------------------------------------------------------|
D|-------------------------------------------------------------------------------------------|
A|-------------------------------------------------------------------3-3-3-3-3-3-3-0-3-3-3-3-|
E|-5/7\5-5-5-5-5-5-5-5-5-5-5-3-5-5-5-5-1-1-1-1-1-1-1-1-1-1-1-1-1-1-1-------------------------|
B|-------------------------------------------------------------------------------------------|

G|---------------------------------------------------------------------------------------------|
D|-----2-2-------------------------------------------------------------------------------------|
A|-5-5-----------------------------------------------------------------------------------------|
E|---------3-3-3-3-3-3-3-3-3-3-3-3-5/7\5-5-5-5-5---3-3-5-5-5---3-3-1-1-1-1-1-1-1-1-10/13-13-13-|
B|-----------------------------------------------3-----------3---------------------------------|

               VERSE:
G|-----------------------------------------------------------------------------------------------|
D|-----------------------------------------------------------------------------------------------|
A|-----------------------------------------------------------------------------------------------|
E|-12h13p12h13---------------------------------3-3-3-3-3-3-3-3-3-3-3-3-3-3-3-3-5-5-5-5-5-5-5-5-5-|
B|-------------1-1-1-1-1-1-1-1-1-1-1-1-1-1-1-1---------------------------------------------------|

G|-----------------------------------------------------------------------------------------------|
D|-----------------------------------------------------------------------------------------------|
A|-----------------------------------------------------------------------------------------------|
E|-5-5-5-5-5-5-5-1-1-1-1-1-1-1-1-1-1-1-1-1-1-1-1---------------------------------1-1-1-1-1-1-1-1-|
B|-----------------------------------------------3-3-3-3-3-3-3-3-3-3-3-3-3-3-3-3-----------------|


G|------------------------------------------------------------------------------------------------|
D|------------------------------------------------------------------------------------------------|
A|------------------------------------------------------------------------------2/3-5-------------|
E|-3-3-3-3-3-3-3-3-3--------------------------------0-0-3-3-3-3-3-3-3-3-3-3-3-3-------5-5-5-5-5---|
B|-------------------12\1-1-1-1-1-1-1-1-1-1-1-1-3-3---------------------------------------------3-|


G|-------------------------------------------------------------------------------------------|
D|---------------------------------------------------------------------------------------2-2-|
A|-----------------------------------------------------------3-3-3-3-3-3-3-0-3-3-3-3-5-5-----|
E|-3-3-5-5-5---3-3-5-1-1-1-1-1-1-1-1-10/13-13-13-12h13p12h13---------------------------------|
B|-----------3-------------------------------------------------------------------------------|

G|-----------------------------------------------------------------------------------------------|
D|-----------------------------------------------------------------------------------------------|
A|-------------------------2/3-5-----------------------------------------------------------------|
E|-3-3-3-3-3-3-3-3-3-3-3-3-------5-5-5-5-5---3-3-5-5-5---3-3-5-1-1-1-1-1-1-1-1-10/13-13-13-12h13-|
B|-----------------------------------------3-----------3-----------------------------------------|

G|------------------------------------------------------------------------------------------------|
D|----------------------------------------------------------------------------------2-2-----------|
A|-10\8-------------------------------------------------3-3-3-3-3-3-3-0-3-3-3-3-5-5---------------|
E|------5-5-5-5-5---------------------1/3-3-3-3-3-3-3-3---------------------------------3-3-3-3-3-|
B|----------------6-6-6-6-6-3-3-3-3-3-------------------------------------------------------------|

G|------------------------------------------------------------------------------------------|
D|------------------------------------------------------------------------------------------|
A|---------------2/3-5-----------------------------------------------------------------10\8-|
E|-3-3-3-3-3-3-3-------5-5-5-5-5---3-3-5-5-5---3-3-5-1-1-1-1-1-1-1-1-10/13-13-13-12h13------|
B|-------------------------------3-----------3----------------------------------------------|

FINGER PLUCKING (Ad libitum):
G|-5---5---5---5---5---5---5---5-------------------------------------------------------------------|
D|---------------------------------5---5---5---5---5---5---5---5---7---7---7---7---7---7---7---7---|
A|---3---3---3---3---3---3---3---3-----------------------------------------------------------------|
E|-----------------------------------3---3---3---3---3---3---3---3---5---5---5---5---5---5---5---5-|
B|-------------------------------------------------------------------------------------------------|

G|-----------------------------|
D|--3-----3-----3-----3-----3--|
A|-----------------------------|
E|-----1-----1-----1-----1-----|
B|-----------------------------|

CHORUS & OUTRO:
G|---------------------------------------------------------------------------------------------|
D|-----------------------------2-2-------------------------------------------------------------|
A|-3-3-3-3-3-3-3-0-3-3-3-3-5-5-----------------------------2/3-5-------------------------------|
E|---------------------------------3-3-3-3-3-3-3-3-3-3-3-3-------5-5-5-5-5---3-3-5-5-5---3-3-5-|
B|-------------------------------------------------------------------------3-----------3-------|

G|------------------------------------------------------------------------------------------------|
D|--------------------------------------------------------------------2-2-------------------------|
A|-----------------------------------10\8-3-3-3-3-3-3-3-0-3-3-3-3-5-5-----------------------------|
E|-1-1-1-1-1-1-1-1-10/13-13-13-12h13--------------------------------------3-3-3-3-3-3-3-3-3-3-3-3-|
B|------------------------------------------------------------------------------------------------|

G|--------------------------------------------------------------------------------|
D|--------------------------------------------------------------------------------|
A|-2/3-5-----------------------------------------------------------------10\8-----|
E|-------5-5-5-5-5---3-3-5-5-5---3-3-5-1-1-1-1-1-1-1-1-10/13-13-13-12h13------8---|
B|-----------------3-----------3--------------------------------------------------|


| /  slide up
| \  slide down
| h  hammer-on
| p  pull-off
| ~  vibrato
| +  harmonic
| x  Mute note
===============================================================================
Suggest correction
What's this?
You can suggest a correction to this tab. Community and Mods will review your correction and vote to approve or reject it.
comments
We did not receive enough feedback on this tab! Please rate:
print report bad tab
1 2 3 4 5
guest
You may want to rate the tab now too:
select rating
Please do not post tabs as comments. Select "correction" instead!