Oops, an error
Loading. Please wait.

Gotta Be Somebody Tab

version 5
version 5

Whole song

Interactive

4,477 views 3 this week
3 commentsread comments
1 2 3 4 5
accurate
x 3
add to favorites
launch autoscroll
font size
0
reset
how to read this tab
guitar tuner
Autoscroll
slow
fast
+/-
esc
set tempo
stop
Help us to improve Ultimate-Guitar.com Take our survey!
×
Contributor
[travis] 4,564
-------------------------------------------------------------------------------
                             "Gotta Be Somebody" - Nickelback
-------------------------------------------------------------------------------


Tabbed By: [travis]



Tunings: Guitar 1 = (EADGBE) low to high
         Guitar 2 = (EADGBE) low to high
         Guitar 3 = (EADGBE) low to high
         Guitar 4 = (CGCFAD) low to high
         Guitar 5 = (EADGBE) low to high
         Guitar 6 = (EADGBE) low to high
         Guitar 7 = (EADGBE) low to high
        


Key: C Major --- (C D E F G A B C)



Legend:

... = palm mute
h = hammer on
p = pull off
b = bend
__ = hold bend
/ = slide up
\ = slide down
~ = ring / vibrato
1 = whole step bend
.5 = half step bend
() = bring bent note back to normal / note not picked
h/ = pick once
p\ = pick once
h/p\ = pick once
x = muffled string 




Guitar 1: tremelo effect
e|-------------------------------------|
B|-------------------------------------|
G|-------------------------------------|
D|-5~~~~~----5~~~~---7~~~~----3~~~~~---|
A|-3~~~~~----5~~~~---7~~~~----3~~~~~---|
E|-3~~~~~----3~~~~---5~~~~----1~~~~~---|


Guitar 2: this comes in after the last chord of Guitar 1.
e|----------------|
B|----------------|
G|----------------|
D|-10-10-10-10-10-|
A|----------------|
E|----------------|
   ..............

=========================================
"This time...So I'll be waiting for"
Guitar 1: tremelo effect.
e|-------------------------------------|
B|-------------------------------------|
G|-------------------------------------|
D|-5~~~~~----5~~~~---7~~~~----3~~~~~---|
A|-3~~~~~----5~~~~---7~~~~----3~~~~~---|
E|-3~~~~~----3~~~~---5~~~~----1~~~~~---|


Guitar 2:
 (x16) (x16) (x13)  
e|--------------------------------------------------------------------------|
B|--------------------------------------------------------------------------|
G|-17---16----17----9--9--9-10-10-10-10-10-10-10-10-10-10-10-10-10-10-10--9-|
D|--x----x-----x---10-10-10-10-10-10-10-10-10-10-10-10-10-10-10-10-10-10-10-|
A|-15---14----15------------------------------------------------------------|
E|--------------------------------------------------------------------------|
   .........................................................................

============================================
Verse:

Guitar 1: tremelo effect.
e|-------------------------------------|
B|-------------------------------------|
G|-------------------------------------|
D|-5~~~~~----5~~~~---7~~~~----3~~~~~---|
A|-3~~~~~----5~~~~---7~~~~----3~~~~~---|
E|-3~~~~~----3~~~~---5~~~~----1~~~~~---|


Guitar 2:
 (x16) (x16) (x16) (x16)
e|-----------------------|
B|-----------------------|
G|--9----7-----9----10---|
D|-10----9----10----10---|
A|-----------------------|
E|-----------------------|
  .......................


Guitar 3: each set is played 4 times each.
     x4       x4        x4      x4
e|------------------------------------|
B|------------------------------------|
G|------------------------------------|
D|------------------------------------|
A|-3-3-3-3--5-5-5-5--7-7-7-7--3-3-3-3-|
E|-3-3-3-3--3-3-3-3--5-5-5-5--1-1-1-1-|
   ..................................


Guitar 4: each set is played 4 times each.
     x4       x4       x4       x4
D|------------------------------------|
A|------------------------------------|
F|------------------------------------|
C|------------------------------------|
G|-0-0-0-0--7-7-7-7--9-9-9-9--5-5-5-5-|
C|-0-0-0-0--7-7-7-7--9-9-9-9--5-5-5-5-|
   ..................................


============================================
Pre Chorus:

Guitar 1: tremelo effect.
e|-----------------------------------|
B|-----------------------------------|
G|-7~~~--7~~~------------------------|
D|-7~~~--7~~~---3~~~---5~~~---5~~~---|
A|-5~~~--5~~~---3~~~---5~~~---5~~~---|
E|--------------1~~~---3~~~---3~~~---|

Guitar 2:
e|-0-0-0-0-0-0-0-0-0-0-0-0-0-0-0-0-------------------------------------------------------|
B|-5-5-5-5-5-5-5-5-5-5-5-5-5-5-5-5-------------------------------------------------------|
G|---------------------------------10-10-10-10-10-10-10-10-12-12-12-12-12-12-12-12-------|
D|---------------------------------10-10-10-10-10-10-10-10-12-12-12-12-12-12-12-12-10~~~-|
A|---------------------------------------------------------------------------------------|
E|---------------------------------------------------------------------------------------|
   ...............................................................................

Guitar 3:
     x4       x2       x3
e|------------------------------|
B|------------------------------|
G|------------------------------|
D|-7-7-7-7--3-3-3-3--5-5-5--5~~-|
A|-5-5-5-5--3-3-3-3--5-5-5--3~~-|
E|-5-5-5-5--1-1-1-1--3-3-3--3~~-|
   .......................


Guitar 4:
     x4       x2      x3 
D|------------------------------|
A|------------------------------|
F|------------------------------|
C|-2-2-2-2--5-5-5-5--7-7-7--7~~-|
G|-2-2-2-2--5-5-5-5--7-7-7--7~~-|
C|-2-2-2-2--5-5-5-5--7-7-7--7~~-|
   .......................


================================================
Chorus:

Guitar 1: tremelo effect.
e|-------------------------------------|
B|-------------------------------------|
G|-------------------------------------|
D|-5~~~~~----5~~~~---7~~~~----3~~~~~---| x2
A|-3~~~~~----5~~~~---7~~~~----3~~~~~---|
E|-3~~~~~----3~~~~---5~~~~----1~~~~~---|


Guitar 2: Play both bars twice.****
e|-3-----3~------3~-----3~-----3~-----3~-----3~-----3~-----3~-|
B|---5------5-------5--------5----3------3------3--------3----|
G|-----5------5-------5----5--------4------4------4----4------|
D|------------------------------------------------------------|
A|------------------------------------------------------------|
E|------------------------------------------------------------|

***Guitar 2 Continued:***
e|-----3~-----3~-----3~-----3~-----3~-----3~-----3~-----3~-|
B|-5------5------5--------5----6------6------6--------6----|
G|---5------5------5----5--------5------5------5----5------|
D|---------------------------------------------------------|
A|---------------------------------------------------------|
E|---------------------------------------------------------|


Guitar 3:
     x4       x4       x4        x4
e|------------------------------------|
B|------------------------------------|
G|------------------------------------|
D|-5-5-5-5--5-5-5-5--7-7-7-7--3-3-3-3-| x2
A|-3-3-3-3--5-5-5-5--7-7-7-7--3-3-3-3-|
E|-3-3-3-3--3-3-3-3--5-5-5-5--1-1-1-1-|



Guitar 4:
     x4       x4        x4       x4
D|------------------------------------|
A|------------------------------------|
F|-2-2-2-2----------------------------|
C|-0-0-0-0--7-7-7-7--9-9-9-9--5-5-5-5-| x2
G|-0-0-0-0--7-7-7-7--9-9-9-9--5-5-5-5-|
C|-0-0-0-0--7-7-7-7--9-9-9-9--5-5-5-5-|


Go back and play the Verse, Pre Chorus, and the Chorus.
Then move on to the Interlude.
====================================================
Break:
Guitar 3:
e|-------------------------------------------------------------------|
B|-------------------------------------------------------------------|
G|-------------------------------------------------------------------|
D|-7~~---7-7~~~---7~~~-7-7-7-7-7-7-7--3~~--3-3~~--3~~~-3-3-3-3-3-3-3-|
A|-7~~---7-7~~~---7~~~-7-7-7-7-7-7-7--3~~--3-3~~--3~~~-3-3-3-3-3-3-3-|
E|-5~~---5-5~~~---5~~~-5-5-5-5-5-5-5--1~~--1-1~~--1~~~-1-1-1-1-1-1-1-|

Guitar 4:
D|--------------------------------------------------------------------------|
A|--------------------------------------------------------------------------|
F|--------------------------------------------------------------------------|
C|-9~~---9-9~~~---9~~~-9-9-9-9-9-9-9-------5--5-5~~--5~~~-5-5-5-5-5-5-5-x-x-|
G|-9~~---9-9~~~---9~~~-9-9-9-9-9-9-9--0-0--5--5-5~~--5~~~-5-5-5-5-5-5-5-x-x-|
C|-9~~---9-9~~~---9~~~-9-9-9-9-9-9-9--0-0--5--5-5~~--5~~~-5-5-5-5-5-5-5-----|


======================================================
Break Continued:

Guitar 2:
e|----------------------------------------|
B|----------------------------------------|
G|-19---21~~---19~~~19-19-19--17----------|
D|--x----x------x----x--x--x-----14-17-14-| x2
A|-17---19~~---17~~~17-17-17--------------|
E|----------------------------------------|

Guitar 3:
e|-----------------------------------------------------------------|
B|-----------------------------------------------------------------|
G|-----------------------------------------------------------------|
D|-7~~--7-7~~~--7~~-7-7-7-7-7-7-7--3~~--3-3~~---3--3-3-3-3-3-3-3-3-| x1
A|-5~~--5-5~~~--5~~-5-5-5-5-5-5-5--3~~--3-3~~---3--3-3-3-3-3-3-3-3-|
E|-5~~--5-5~~~--5~~-5-5-5-5-5-5-5--1~~--1-1~~---1--1-1-1-1-1-1-1-1-|

Guitar 5:
D|----------------------------------------------------------------|
A|----------------------------------------------------------------|
F|----------------------------------------------------------------|
C|-2~~--2-2~~~--2~~-2-2-2-2-2-2-2--5~~--5-5~~---5~~-5-5-5-5-5-5-5-| x1
G|-2~~--2-2~~~--2~~-2-2-2-2-2-2-2--5~~--5-5~~---5~~-5-5-5-5-5-5-5-|
C|-2~~--2-2~~~--2~~-2-2-2-2-2-2-2--5~~--5-5~~---5~~-5-5-5-5-5-5-5-|


==========================================================
Bridge:

Guitar 1: tremelo effect
e|-------------------------------------|
B|-------------------------------------|
G|-------------------------------------|
D|-5~~~~~----5~~~~---7~~~~----3~~~~~---|
A|-3~~~~~----5~~~~---7~~~~----3~~~~~---|
E|-3~~~~~----3~~~~---5~~~~----1~~~~~---|


Guitar 2: Play both bars twice.****
e|-3-----3~------3~-----3~-----3~-----3~-----3~-----3~-----3~-|
B|---5------5-------5--------5----3------3------3--------3----|
G|-----5------5-------5----5--------4------4------4----4------|
D|------------------------------------------------------------|
A|------------------------------------------------------------|
E|------------------------------------------------------------|

***Guitar 2 Continued:***
e|-----3~-----3~-----3~-----3~-----3~-----3~-----3~-----3~-|
B|-5------5------5--------5----6------6------6--------6----|
G|---5------5------5----5--------5------5------5----5------|
D|---------------------------------------------------------|
A|---------------------------------------------------------|
E|---------------------------------------------------------|


Guitar 3:
     x4       x4       x4       x4
e|------------------------------------|
B|------------------------------------|
G|------------------------------------|
D|-5-5-5-5--5-5-5-5--7-7-7-7--3-3-3-3-|
A|-3-3-3-3--5-5-5-5--7-7-7-7--3-3-3-3-|
E|-3-3-3-3--3-3-3-3--5-5-5-5--1-1-1-1-|


Guitar 4:
     x4       x4        x4       x4
D|------------------------------------|
A|------------------------------------|
F|-2-2-2-2----------------------------|
C|-0-0-0-0--7-7-7-7--9-9-9-9--5-5-5-5-| 
G|-0-0-0-0--7-7-7-7--9-9-9-9--5-5-5-5-|
C|-0-0-0-0--7-7-7-7--9-9-9-9--5-5-5-5-|


===============================================
Guitar 1: tremelo effect
e|-----------------|
B|-----------------|
G|-----------------|
D|-5~~~~~----5~~~~-|
A|-3~~~~~----5~~~~-|
E|-3~~~~~----3~~~~-|



Guitar 3:
e|---------------------|
B|---------------------|
G|---------------------|
D|-5~~~~~~5~~~~~5~~~~~-|
A|-5~~~~~~5~~~~~5~~~~~-|
E|-3~~~~~~3~~~~~3~~~~~-|


Guitar 4:
D|----------------------|
A|----------------------|
F|-2~~~~~~2~~~~~~2~~~~~-|
C|-0~~~~~~0~~~~~~0~~~~~-|
G|-0~~~~~~0~~~~~~0~~~~~-|
C|-0~~~~~~0~~~~~~0~~~~~-|


Guitar 5:
e|------10~~~--12~~~----10-12-10---------10~~~--12~~~-----10-12-10----|
B|-------------------13----------13--------------------------------13-|
G|-12-------------------------------12-----------------12-------------|
D|--------------------------------------------------------------------|
A|--------------------------------------------------------------------|
E|--------------------------------------------------------------------|

Guitar 6:
e|-----7~~~--8~~~---7-8-7-------7~~~--8~~~----7-8-7---|
B|----------------8-------8-------------------------8-|
G|-5------------------------7---------------7---------|
D|----------------------------------------------------|
A|----------------------------------------------------|
E|----------------------------------------------------|

==================================================
Guitar 1:
e|-------------------------------|
B|-------------------------------|
G|-------------------------------|
D|-5~~~~~-5~~~~~---3~~~~~-3~~~~~-|
A|-3~~~~~-3~~~~~---3~~~~~-3~~~~~-|
E|-3~~~~~-3~~~~~---1~~~~~-1~~~~~-|


Guitar 5:
e|------10~~~--12~~~----10-12-10---------10~~~--15~~~~~~|
B|-10----------------13----------13-10------------------|
G|------------------------------------------------------|
D|------------------------------------------------------|
A|------------------------------------------------------|
E|------------------------------------------------------|

Guitar 6:
e|------------------------------------------------------|
B|------12~~~--13~~~------------------------------------|
G|----------------------16-17-16---------16~~~--17~~~~~~|
D|-14----------------14----------17---------------------|
A|----------------------------------15------------------|
E|------------------------------------------------------|


====================================================
Chorus:

Guitar 1: tremelo effect.
e|-------------------------------------|
B|-------------------------------------|
G|-------------------------------------|
D|-5~~~~~----5~~~~---7~~~~----3~~~~~---| x2
A|-3~~~~~----5~~~~---7~~~~----3~~~~~---|
E|-3~~~~~----3~~~~---5~~~~----1~~~~~---|


Guitar 2: Play both bars twice.****
e|-3-----3~------3~-----3~-----3~-----3~-----3~-----3~-----3~-|
B|---5------5-------5--------5----3------3------3--------3----|
G|-----5------5-------5----5--------4------4------4----4------|
D|------------------------------------------------------------|
A|------------------------------------------------------------|
E|------------------------------------------------------------|

***Guitar 2 Continued:***
e|-----3~-----3~-----3~-----3~-----3~-----3~-----3~-----3~-|
B|-5------5------5--------5----6------6------6--------6----|
G|---5------5------5----5--------5------5------5----5------|
D|---------------------------------------------------------|
A|---------------------------------------------------------|
E|---------------------------------------------------------|


Guitar 3:
     x4       x4       x4        x4
e|------------------------------------|
B|------------------------------------|
G|------------------------------------|
D|-5-5-5-5--5-5-5-5--7-7-7-7--3-3-3-3-| x2
A|-3-3-3-3--5-5-5-5--7-7-7-7--3-3-3-3-|
E|-3-3-3-3--3-3-3-3--5-5-5-5--1-1-1-1-|



Guitar 4:
     x4       x4        x4       x4
D|------------------------------------|
A|------------------------------------|
F|-2-2-2-2----------------------------|
C|-0-0-0-0--7-7-7-7--9-9-9-9--5-5-5-5-| x2
G|-0-0-0-0--7-7-7-7--9-9-9-9--5-5-5-5-|
C|-0-0-0-0--7-7-7-7--9-9-9-9--5-5-5-5-|


*****Guitar 7: Comes in on "Nobody wants to be the last one"
  Light Palm Mute.
e|-12----12----------------------------------------|
B|--x-13--x-13-------15-13-15-13-------15-13-15-13-|
G|-12-12-12-12-12-12-12-12-12-12-12-12-12-12-12-12-|
D|-------------------------------------------------| x8
A|-------------------------------------------------|
E|-------------------------------------------------|

   ................................................


=====================================================
Guitar 3:
e|------------|
B|------------|
G|------------|
D|-5~~~~~~~~~~|
A|-3~~~~~~~~~~|
E|-3~~~~~~~~~~|


Guitar 4:
D|------------|
A|------------|
F|------------|
C|-0~~~~~~~~~~|
G|-0~~~~~~~~~~|
C|-0~~~~~~~~~~|

Guitar 5:
e|------10~~~--12~~~----10-12-10---------10~~~--12~~~-----10-12-10----|
B|-------------------13----------13--------------------------------13-|
G|-12-------------------------------12-----------------12-------------|
D|--------------------------------------------------------------------|
A|--------------------------------------------------------------------|
E|--------------------------------------------------------------------|

Guitar 6:
e|-----7~~~--8~~~---7-8-7-------7~~~--8~~~----7-8-7---|
B|----------------8-------8-------------------------8-|
G|-5------------------------7---------------7---------|
D|----------------------------------------------------|
A|----------------------------------------------------|
E|----------------------------------------------------|

Guitar 7
e|-12----12----------------------------------------|
B|--x-13--x-13-------15-13-15-13-------15-13-15-13-|
G|-12-12-12-12-12-12-12-12-12-12-12-12-12-12-12-12-|
D|-------------------------------------------------| x1
A|-------------------------------------------------|
E|-------------------------------------------------|

   ................................................


==============================================
Guitar 5:
e|------10~~~--12~~~----10-12-10---------10~~~--15~~~~~~|
B|-10----------------13----------13-10------------------|
G|------------------------------------------------------|
D|------------------------------------------------------|
A|------------------------------------------------------|
E|------------------------------------------------------|

Guitar 6:
e|------------------------------------------------------|
B|------12~~~--13~~~------------------------------------|
G|----------------------16-17-16---------16~~~--17~~~~~~|
D|-14----------------14----------17---------------------|
A|----------------------------------15------------------|
E|------------------------------------------------------|

Guitar 7
e|-12----12----------------------------------------|
B|--x-13--x-13-------15-13-15-13-------15-13-15-13-|
G|-12-12-12-12-12-12-12-12-12-12-12-12-12-12-12-12-|
D|-------------------------------------------------| x1
A|-------------------------------------------------|
E|-------------------------------------------------|

   ................................................




Please Rate and Comment This Tab.


[travis]


+++++++++++++++++++++++++++++++++++++
comments
We did not receive enough feedback on this tab! Please rate:
print report bad tab
1 2 3 4 5
3 comments total.
+2 reply
Teen Spirit 3,022 wrote on February 3 2009, 02:37 pm

Perfect, but of course not for live performance use, as this is the recorded version with multiple guitars. Well done though, great tab.

-1 reply
guitar_gringo_ 10 wrote on February 8 2009, 06:56 pm

STOP WHATEVER YOU ARE DOING RIGHT NOW...THERE IS THIS GIRL ON MYSPACE WHO WILL MAKE YOU BLOW CHUNKS,..NOT SINCE HENDRIX HAVE I BEEN SO MESMERIZED.///GO TO THIS LINK RIGHT NOW,FOOL!http://profile.myspace.com/index.cfm?fuseaction=user.viewprofile&friendID=426470056...!!!!!!!!!!!!!!!!!!!!!!!!!
!!!!!!!!!!!!!!!!!!!!!!!!!!!!!!!!!!!!!!!!!!!!!!!!!!!!!!!!!!!!!!!!!!!!!!!!!!!!!!!!!!!!!!!!!!!!!!!!!!!!!!!!!!!!AND THEN TELL EVERYONE!!!!!!!!!!!

0 reply
Mars Sevenfold 394 wrote on November 25 2013, 11:09 am

who is this guy? are you nuts?

I want to post or [tab]
guest
You may want to rate the tab now too:
select rating
Please do not post tabs as comments. Select "correction" instead!