Oops, an error
Loading. Please wait.

Hero Bass Tab

274 views 15 this week
no commentswrite comment
1 2 3 4 5
3 more votes to show rating
add to favorites
launch autoscroll
font size
0
reset
guitar tuner
×
Best way to learn
"Hero"
Autoscroll
slow
fast
+/-
esc
set tempo
stop
Author
Difficulty
  follow
intermediate
-------------------------------------------------------------------------------
                             Hero - Nickelback
-------------------------------------------------------------------------------
Tabbed by: 790FX
Album: Spiderman Soundtrack 
Tuning: Standard

This sound much better and is more accurate than all other I found on web. 
Great song. At the end its up to you to vary it. 

Verse:

G|-----------------|-----------------|-------------------|
D|-----------------|-----------------|-------------------|
A|-----------------|---2-------------|-----5h7-7-7-7/9-9-| x2
E|-4-4-4-4-4-2-4-4-|-4---4-2-0-0-0-0-|-0-0---------------|


Pre Chorus @ 0:27
                                                     R
G|-----------------|-----------------|-----------------|
D|-----------------|-----------------|-----------------|
A|-----------------|-----------------|-----7-7-7-7-\---|
E|-3-3-3-2-3-2/5-5-|-5/9-9-9-0-0-0-0-|-0-0-------------|


Chorus @ 0:37

G|-----------------|-----------------|-----------------|
D|-----------------|-----------------|-----------------|
A|-----------------|-----------------|-----------------|
E|-3-3-3-2-3-2/5-5-|-5/9-9-9-7-7-7-7-|-7-7-7-7-5-5-5-5-|

                                                   R R
G|-----------------|-----------------|-----------------|
D|-----------------|-----------------|-----------------|
A|-----------------|-----------------|-----------7-----|
E|-3-3-3-2-3-2/5-5-|-5/9-9-9-0-0-0-0-|-0-0-0-0-0-------|



Verse @ 0:57

G|-----------------|-----------------|---------------4-|
D|-----------------|-----------------|-----------2-4---|
A|-----------------|---2-------------|---------2-------| 
E|-4-4-4-4-4-2-4-4-|-4---4-2-0-0-0-0-|-0-0-0-0---------|

G|-----------------|-----------------|-------------------|
D|-----------------|-----------------|-------------------|
A|-----------------|---2-------------|-----5h7-7-7-7/9-9-| 
E|-4-4-4-4-4-2-4-4-|-4---4-2-0-0-0-0-|-0-0---------------|


Repeat: 
        @ 1:16 Pre Chorus x1


Chorus @ 1:26
                                           e e e e
G|-----------------|-----------------|---------------------|
D|-----------------|-----------------|-------9---9---------|
A|-----------------|-----------------|-----9---9-----------|
E|-3-3-3-2-3-2/5-5-|-5/9-9-9-7-7-7-7-|-7-7---------7-7-5-5-|

                                               e e e e e e e e
G|-----------------|-----------------|-------------------------|
D|-----------------|-----------------|-------------------------|
A|-----------------|-----------------|---------7-7-7-7-7-7-7-7-|
E|-3-3-3-2-3-2/5-5-|-5/9-9-9-0-0-0-0-|-0-0-0-0-0-0-0-0-0-0-0-0-|


Solo @ 1:45

G|-----------------|-----------------|-----|
D|-----------------|-----------------|-----|
A|-----------------|-----------------|-----|
E|-3-3-3-2-3-2/5-5-|-5/9-9-9-7-7-7-7-|-5-5-|
                                                   R R
G|-----------------|---------9-9-9-9-|-9-9-9-9-9-9-----|
D|-----------------|---------9-9-9-9-|-9-9-9-9-9-9-----|
A|-----------------|---------7-7-7-7-|-7-7-7-7-7-7-----|
E|-3-3-3-2-3-2/5-5-|-5/9-9-9-0-0-0-0-|-0-0-0-0-0-0-----|

G|-----------------|-----------------|-----------------|-------------------|
D|-----------------|-----------------|-----------------|-------------------|
A|------pause------|------pause------|-----------------|-----------7-\-----|
E|-----------------|-----------------|---------0-0-0-0-|-0-0-0-0-0---------|



Chorus @ 2:22
                                           e e e e
G|-----------------|-----------------|---------------------|
D|-----------------|-----------------|-------9---9---------|
A|-----------------|-----------------|-----9---9-----------|
E|-3-3-3-2-3-2/5-5-|-5/9-9-9-7-7-7-7-|-7-7---------7-7-5-5-|

                                                 e e e e e e
G|-----------------|-----------------|------------------------|
D|-----------------|-----------------|------------------------|
A|-----------------|-----------------|-------7-------7---7----| 
E|-3-3-3-2-3-2/5-5-|-5/9-9-9-0-0-0-0-|-0-0-0-----0-0---0---7\-|



Outro @ 2:42
                                           e e e e
G|-----------------|-----------------|---------------------|
D|-----------------|-----------------|-------9---9---------|
A|-----------------|-----------------|-----9---9-----------| x2
E|-3-3-3-2-3-2/5-5-|-5/9-9-9-7-7-7-7-|-7-7---------7-7-5-5-|

                                           
G|-----------------|-----------------|-----------------|-4*---------------|
D|-----------------|-----------------|-----------------|-4*---------------|
A|-----------------|-----------------|-----------------|-2*---------------|
E|-3-3-3-2-3-2/5-5-|-5/9-9-9-0-0-0-0-|-0-0-0-0---------|-0*---------------|



| /  slide up
| \  slide down
| h  hammer-on
| *  let note ring
| e  eighth note
| R  rest
===============================================================================
Suggest correction
Give kudos to tab author, rate the tab!
1 2 3 4 5
comments
print report bad tab
guest
You may want to rate the tab now too:
select rating
Wanna post a correction for this tab? Suggest correction