Oops, an error
Loading. Please wait.

Hold Out Your Hand Tab

version 2
version 2

Whole song

552 views 1 this week
1 commentread comment
1 2 3 4 5
please rate
add to favorites
launch autoscroll
font size
0
reset
how to read this tab
guitar tuner
Autoscroll
slow
fast
+/-
esc
set tempo
stop
Help us to improve Ultimate-Guitar.com Take our survey!
×
Contributor
Difficulty
Tuning
Chickenboot 2,447
novice
C G C F A D
Hold Out Your Hand
Nickelback
The State (1998)

Hold Out Your Hand:  written by Chad Kroeger

NOTE: I couldn't figure out GTR I's solo, but I have the rest.

GTR I - Drop C Tuning "Electric" (d,A,F,C,G,C)
GTR II - Drop C Tuning "Electric" (d,A,F,C,G,C)
GTR III - Drop C Tuning "Acoustic" (d,A,F,C,G,C)

Intro

  GTR I
d|-------------------------------------------------|
A|-------------------------------------------------|
F|-------------------------------------------------|
C|-------------------------------------------------|
G|-------------------------------------------------|
C|-------------------------------------------------|
 |
 |GTR II (Distortion)
d|-------------------------------------------------|
A|--5-------/6\-5-----5-------/6\-5----------------|
F|--4-------/5\-4-----4-------/5\-4----------------|
C|--2-------/3\-2-----2-------/3\-2----------------|
G|--2-------/3\-2-----2-------/3\-2----------------|
C|--2-------/3\-2-----2-------/3\-2----------------|

  GTR I
d|-------------------------------------------------|
A|-------------------------------------------------|
F|-------------------------------------------------|
C|-------------------------------------------------|
G|-------------------------------------------------|
C|-------------------------------------------------|
 |
 |GTR II 
d|-------------------------------------------------|
A|--5-------/6\-5-----3-------/6\-5----------------|
F|--4-------/5\-4-----2-------/5\-4----------------|
C|--2-------/3\-2-----0-------/3\-2----------------|
G|--2-------/3\-2-----0-------/3\-2-----2-----0----|
C|--2-------/3\-2-----0-------/3\-2-----2-----0----|

  GTR I (Distortion)
d|-------------------------------------------------|
A|--5-------/6\-5-----5-------/6\-5----------------|
F|--4-------/5\-4-----4-------/5\-4----------------|
C|--2-------/3\-2-----2-------/3\-2-----x--x-------|
G|--2-------/3\-2-----2-------/3\-2-----x--x-------|
C|--2-------/3\-2-----2-------/3\-2-----x--x-------|
 |
 |GTR II
d|-------------------------------------------------|
A|--5-------/6\-5-----5-------/6\-5----------------|
F|--4-------/5\-4-----4-------/5\-4----------------|
C|--2-------/3\-2-----2-------/3\-2-----x--x-------|
G|--2-------/3\-2-----2-------/3\-2-----x--x-------|
C|--2-------/3\-2-----2-------/3\-2-----x--x-------|

  GTR I
d|-------------------------------------------------|
A|--5-------/6\-5-----3----------------------------|
F|--4-------/5\-4-----2----------------------------|
C|--2-------/3\-2-----0----------------------------|
G|--2-------/3\-2-----0----------------------------|
C|--2-------/3\-2-----0----------------------------|
 |
 |GTR II
d|-------------------------------------------------|
A|--5-------/6\-5-----3----------------------------|
F|--4-------/5\-4-----2----------------------------|
C|--2-------/3\-2-----0----------------------------|
G|--2-------/3\-2-----0----------------------------|
C|--2-------/3\-2-----0----------------------------|

Pre Verse

  GTR I
d|-------------------------------------------------|
A|--5-------/6\-5-----5-------/6\-5----------------|
F|--4-------/5\-4-----4-------/5\-4----------------|
C|--2-------/3\-2-----2-------/3\-2----------------|
G|--2-------/3\-2-----2-------/3\-2----------------|
C|--2-------/3\-2-----2-------/3\-2----------------|
 |
 |GTR II
d|-------------------------------------------------|
A|--5-------/6\-5-----5-------/6\-5----------------|
F|--4-------/5\-4-----4-------/5\-4----------------|
C|--2-------/3\-2-----2-------/3\-2----------------|
G|--2-------/3\-2-----2-------/3\-2----------------|
C|--2-------/3\-2-----2-------/3\-2----------------|
 |
 |GTR III
d|-------------------------------------------------|
A|--5----------------------------------------------|
F|--4----------------------------------------------|
C|--2----------------------------------------------|
G|--2----------------------------------------------|
C|--2----------------------------------------------|

  GTR I
d|-------------------------------------------------|
A|--5-------/6\-5-----3-------/6\-5----------------|
F|--4-------/5\-4-----2-------/5\-4----------------|
C|--2-------/3\-2-----0-------/3\-2----------------|
G|--2-------/3\-2-----0-------/3\-2-----2-----0----|
C|--2-------/3\-2-----0-------/3\-2-----2-----0----|
 |
 |GTR II 
d|-------------------------------------------------|
A|--5-------/6\-5-----3-------/6\-5----------------|
F|--4-------/5\-4-----2-------/5\-4----------------|
C|--2-------/3\-2-----0-------/3\-2----------------|
G|--2-------/3\-2-----0-------/3\-2-----2-----0----|
C|--2-------/3\-2-----0-------/3\-2-----2-----0----|
 |
 |GTR III
d|-------------------------------------------------|
A|--5----------------------------------------------|
F|--4----------------------------------------------|
C|--2----------------------------------------------|
G|--2----------------------------------------------|
C|--2----------------------------------------------|

  GTR I
d|-------------------------------------------------|
A|--5-------/6\-5-----5-------/6\-5----------------|
F|--4-------/5\-4-----4-------/5\-4----------------|
C|--2-------/3\-2-----2-------/3\-2-----x--x-------|
G|--2-------/3\-2-----2-------/3\-2-----x--x-------|
C|--2-------/3\-2-----2-------/3\-2-----x--x-------|
 |
 |GTR II
d|-------------------------------------------------|
A|--5-------/6\-5-----5-------/6\-5----------------|
F|--4-------/5\-4-----4-------/5\-4----------------|
C|--2-------/3\-2-----2-------/3\-2-----x--x-------|
G|--2-------/3\-2-----2-------/3\-2-----x--x-------|
C|--2-------/3\-2-----2-------/3\-2-----x--x-------|
 |
 |GTR III
d|-------------------------------------------------|
A|--5----------------------------------------------|
F|--4----------------------------------------------|
C|--2----------------------------------------------|
G|--2----------------------------------------------|
C|--2----------------------------------------------|

  GTR I
d|-------------------------------------------------|
A|--5-------/6\-5-----3-------/6\-5----------------|
F|--4-------/5\-4-----2-------/5\-4----------------|
C|--2-------/3\-2-----0-------/3\-2----------------|
G|--2-------/3\-2-----0-------/3\-2-----2-----0----|
C|--2-------/3\-2-----0-------/3\-2-----2-----0----|
 |
 |GTR II 
d|-------------------------------------------------|
A|--5-------/6\-5-----3-------/6\-5----------------|
F|--4-------/5\-4-----2-------/5\-4----------------|
C|--2-------/3\-2-----0-------/3\-2----------------|
G|--2-------/3\-2-----0-------/3\-2-----2-----0----|
C|--2-------/3\-2-----0-------/3\-2-----2-----0----|
 |
 |GTR III
d|-------------------------------------------------|
A|--5----------------------------------------------|
F|--4----------------------------------------------|
C|--2----------------------------------------------|
G|--2----------------------------------------------|
C|--2----------------------------------------------|

Verse

  GTR I                                            
d|-------------------------------------------------|
A|-------------------------------------------------|
F|-------------------------------------------------|
C|-------------------------------------------------|
G|-------------------------------------------------|
C|-------------------------------------------------|
 |
 |GTR II
d|-------------------------------------------------|
A|-------------------------------------------------|
F|-------------------------------------------------|
C|-------------------------------------------------|
G|--2--2--2--2--2-----2-----2--2--2----------------|
C|--2--2--2--2--2-----2-----2--2--2----------------|
    .  .  .  .  .     .     .  .  .

  GTR I                                            
d|-------------------------------------------------|
A|-------------------------------------------------|
F|-------------------------------------------------|
C|-------------------------------------------------|
G|-------------------------------------------------|
C|-------------------------------------------------|
 |
 |GTR II
d|-------------------------------------------------|
A|-------------------------------------------------|
F|-------------------------------------------------|
C|-------------------------------------------------|
G|--2--2--2--2--2-----2-----2--2--2----------------|
C|--2--2--2--2--2-----2-----2--2--2----------------|
    .  .  .  .  .     .     .  .  .

  GTR I                                            
d|-------------------------------------------------|
A|-------------------------------------------------|
F|-------------------------------------------------|
C|-------------------------------------------------|
G|-------------------------------------------------|
C|-------------------------------------------------|
 |
 |GTR II
d|-------------------------------------------------|
A|-------------------------------------------------|
F|-------------------------------------------------|
C|-------------------------------------------------|
G|--2--2--2--2--2-----2-----2--2--2----------------|
C|--2--2--2--2--2-----2-----2--2--2----------------|
    .  .  .  .  .     .     .  .  .

  GTR I                                            
d|-------------------------------------------------|
A|-------------------------------------------------|
F|-------------------------------------------------|
C|-------------------------------------------------|
G|-------------------------------------------------|
C|-------------------------------------------------|
 |
 |GTR II
d|-------------------------------------------------|
A|-------------------------------------------------|
F|-------------------------------------------------|
C|-------------------------------------------------|
G|--2--2--2--2--2-----2-----2--2--2----------------|
C|--2--2--2--2--2-----2-----2--2--2----------------|
    .  .  .  .  .     .     .  .  .

  GTR I                                            
d|-------------------------------------------------|
A|-------------------------------------------------|
F|-------------------------------------------------|
C|-------------------------------------------------|
G|-------------------------------------------------|
C|-------------------------------------------------|
 |
 |GTR II
d|-------------------------------------------------|
A|-------------------------------------------------|
F|-------------------------------------------------|
C|-------------------------------------------------|
G|--2--2--2--2--2-----2-----2--2--2----------------|
C|--2--2--2--2--2-----2-----2--2--2----------------|
    .  .  .  .  .     .     .  .  .

  GTR I                                            
d|-------------------------------------------------|
A|-------------------------------------------------|
F|-------------------------------------------------|
C|-------------------------------------------------|
G|-------------------------------------------------|
C|-------------------------------------------------|
 |
 |GTR II
d|-------------------------------------------------|
A|-------------------------------------------------|
F|-------------------------------------------------|
C|-------------------------------------------------|
G|--2--2--2--2--2-----2-----2--2--2----------------|
C|--2--2--2--2--2-----2-----2--2--2----------------|
    .  .  .  .  .     .     .  .  .

  GTR I                                            
d|-------------------------------------------------|
A|-------------------------------------------------|
F|-------------------------------------------------|
C|-------------------------------------------------|
G|-------------------------------------------------|
C|-------------------------------------------------|
 |
 |GTR II
d|-------------------------------------------------|
A|-------------------------------------------------|
F|-------------------------------------------------|
C|-------------------------------------------------|
G|--2--2--2--2--2-----2-----2--2--2----------------|
C|--2--2--2--2--2-----2-----2--2--2----------------|
    .  .  .  .  .     .     .  .  .

  GTR I
d|-------------------------------------------------|
A|-------------------------------------------------|
F|-------------------------------------------------|
C|--fbk---------------------------x----------------|
G|--fbk---------------------------x----------------|
C|--fbk---------------------------x----------------|
 |
 |GTR II
d|-------------------------------------------------|
A|-------------------------------------------------|
F|-------------------------------------------------|
C|-------------------------------------------------|
G|--2--2--2--2--2-----2-----2--2--2----------------|
C|--2--2--2--2--2-----2-----2--2--2----------------|
    .  .  .  .  .     .     .  .  .

Pre Verse

  GTR I
d|-------------------------------------------------|
A|--5-------/6\-5-----5-------/6\-5----------------|
F|--4-------/5\-4-----4-------/5\-4----------------|
C|--2-------/3\-2-----2-------/3\-2----------------|
G|--2-------/3\-2-----2-------/3\-2----------------|
C|--2-------/3\-2-----2-------/3\-2----------------|
 |
 |GTR II
d|-------------------------------------------------|
A|--5-------/6\-5-----5-------/6\-5----------------|
F|--4-------/5\-4-----4-------/5\-4----------------|
C|--2-------/3\-2-----2-------/3\-2----------------|
G|--2-------/3\-2-----2-------/3\-2----------------|
C|--2-------/3\-2-----2-------/3\-2----------------|
 |
 |GTR III
d|-------------------------------------------------|
A|--5----------------------------------------------|
F|--4----------------------------------------------|
C|--2----------------------------------------------|
G|--2----------------------------------------------|
C|--2----------------------------------------------|

  GTR I
d|-------------------------------------------------|
A|--5-------/6\-5-----3-------/6\-5----------------|
F|--4-------/5\-4-----2-------/5\-4----------------|
C|--2-------/3\-2-----0-------/3\-2----------------|
G|--2-------/3\-2-----0-------/3\-2-----2-----0----|
C|--2-------/3\-2-----0-------/3\-2-----2-----0----|
 |
 |GTR II 
d|-------------------------------------------------|
A|--5-------/6\-5-----3-------/6\-5----------------|
F|--4-------/5\-4-----2-------/5\-4----------------|
C|--2-------/3\-2-----0-------/3\-2----------------|
G|--2-------/3\-2-----0-------/3\-2-----2-----0----|
C|--2-------/3\-2-----0-------/3\-2-----2-----0----|
 |
 |GTR III
d|-------------------------------------------------|
A|--5----------------------------------------------|
F|--4----------------------------------------------|
C|--2----------------------------------------------|
G|--2----------------------------------------------|
C|--2----------------------------------------------|

  GTR I
d|-------------------------------------------------|
A|--5-------/6\-5-----5-------/6\-5----------------|
F|--4-------/5\-4-----4-------/5\-4----------------|
C|--2-------/3\-2-----2-------/3\-2-----x--x-------|
G|--2-------/3\-2-----2-------/3\-2-----x--x-------|
C|--2-------/3\-2-----2-------/3\-2-----x--x-------|
 |
 |GTR II
d|-------------------------------------------------|
A|--5-------/6\-5-----5-------/6\-5----------------|
F|--4-------/5\-4-----4-------/5\-4----------------|
C|--2-------/3\-2-----2-------/3\-2-----x--x-------|
G|--2-------/3\-2-----2-------/3\-2-----x--x-------|
C|--2-------/3\-2-----2-------/3\-2-----x--x-------|
 |
 |GTR III
d|-------------------------------------------------|
A|--5----------------------------------------------|
F|--4----------------------------------------------|
C|--2----------------------------------------------|
G|--2----------------------------------------------|
C|--2----------------------------------------------|

  GTR I
d|-------------------------------------------------|
A|--5-------/6\-5-----3-------/6\-5----------------|
F|--4-------/5\-4-----2-------/5\-4----------------|
C|--2-------/3\-2-----0-------/3\-2----------------|
G|--2-------/3\-2-----0-------/3\-2-----2-----0----|
C|--2-------/3\-2-----0-------/3\-2-----2-----0----|
 |
 |GTR II 
d|-------------------------------------------------|
A|--5-------/6\-5-----3-------/6\-5----------------|
F|--4-------/5\-4-----2-------/5\-4----------------|
C|--2-------/3\-2-----0-------/3\-2----------------|
G|--2-------/3\-2-----0-------/3\-2-----2-----0----|
C|--2-------/3\-2-----0-------/3\-2-----2-----0----|
 |
 |GTR III
d|-------------------------------------------------|
A|--5----------------------------------------------|
F|--4----------------------------------------------|
C|--2----------------------------------------------|
G|--2----------------------------------------------|
C|--2----------------------------------------------|

Verse

  GTR I                                            
d|-------------------------------------------------|
A|-------------------------------------------------|
F|-------------------------------------------------|
C|-------------------------------------------------|
G|-------------------------------------------------|
C|-------------------------------------------------|
 |
 |GTR II
d|-------------------------------------------------|
A|-------------------------------------------------|
F|-------------------------------------------------|
C|-------------------------------------------------|
G|--2--2--2--2--2-----2-----2--2--2----------------|
C|--2--2--2--2--2-----2-----2--2--2----------------|
    .  .  .  .  .     .     .  .  .

  GTR I                                            
d|-------------------------------------------------|
A|-------------------------------------------------|
F|-------------------------------------------------|
C|-------------------------------------------------|
G|-------------------------------------------------|
C|-------------------------------------------------|
 |
 |GTR II
d|-------------------------------------------------|
A|-------------------------------------------------|
F|-------------------------------------------------|
C|-------------------------------------------------|
G|--2--2--2--2--2-----2-----2--2--2----------------|
C|--2--2--2--2--2-----2-----2--2--2----------------|
    .  .  .  .  .     .     .  .  .

  GTR I                                            
d|-------------------------------------------------|
A|-------------------------------------------------|
F|-------------------------------------------------|
C|-------------------------------------------------|
G|-------------------------------------------------|
C|-------------------------------------------------|
 |
 |GTR II
d|-------------------------------------------------|
A|-------------------------------------------------|
F|-------------------------------------------------|
C|-------------------------------------------------|
G|--2--2--2--2--2-----2-----2--2--2----------------|
C|--2--2--2--2--2-----2-----2--2--2----------------|
    .  .  .  .  .     .     .  .  .

  GTR I                                            
d|-------------------------------------------------|
A|-------------------------------------------------|
F|-------------------------------------------------|
C|-------------------------------------------------|
G|-------------------------------------------------|
C|-------------------------------------------------|
 |
 |GTR II
d|-------------------------------------------------|
A|-------------------------------------------------|
F|-------------------------------------------------|
C|-------------------------------------------------|
G|--2--2--2--2--2-----2-----2--2--2----------------|
C|--2--2--2--2--2-----2-----2--2--2----------------|
    .  .  .  .  .     .     .  .  .

  GTR I                                            
d|-------------------------------------------------|
A|-------------------------------------------------|
F|-------------------------------------------------|
C|-------------------------------------------------|
G|-------------------------------------------------|
C|-------------------------------------------------|
 |
 |GTR II
d|-------------------------------------------------|
A|-------------------------------------------------|
F|-------------------------------------------------|
C|-------------------------------------------------|
G|--2--2--2--2--2-----2-----2--2--2----------------|
C|--2--2--2--2--2-----2-----2--2--2----------------|
    .  .  .  .  .     .     .  .  .

  GTR I                                            
d|-------------------------------------------------|
A|-------------------------------------------------|
F|-------------------------------------------------|
C|-------------------------------------------------|
G|-------------------------------------------------|
C|-------------------------------------------------|
 |
 |GTR II
d|-------------------------------------------------|
A|-------------------------------------------------|
F|-------------------------------------------------|
C|-------------------------------------------------|
G|--2--2--2--2--2-----2-----2--2--2----------------|
C|--2--2--2--2--2-----2-----2--2--2----------------|
    .  .  .  .  .     .     .  .  .

  GTR I                                            
d|-------------------------------------------------|
A|-------------------------------------------------|
F|-------------------------------------------------|
C|-------------------------------------------------|
G|-------------------------------------------------|
C|-------------------------------------------------|
 |
 |GTR II
d|-------------------------------------------------|
A|-------------------------------------------------|
F|-------------------------------------------------|
C|-------------------------------------------------|
G|--2--2--2--2--2-----2-----2--2--2----------------|
C|--2--2--2--2--2-----2-----2--2--2----------------|
    .  .  .  .  .     .     .  .  .

  GTR I
d|-------------------------------------------------|
A|-------------------------------------------------|
F|-------------------------------------------------|
C|--fbk---------------------------x----------------|
G|--fbk---------------------------x----------------|
C|--fbk---------------------------x----------------|
 |
 |GTR II
d|-------------------------------------------------|
A|-------------------------------------------------|
F|-------------------------------------------------|
C|-------------------------------------------------|
G|--2--2--2--2--2-----2-----2--2--2----------------|
C|--2--2--2--2--2-----2-----2--2--2----------------|
    .  .  .  .  .     .     .  .  .

Chorus

  GTR I
d|-------------------------------------------------|
A|-------------------------------------------------|
F|--2--2--2--2--2--2--2--2--2--2--2--2--2--2--2--2-|
C|--2--2--2--2--2--2--2--2--2--2--2--2--2--2--2--2-|
G|--0--0--0--0--0--0--0--0--0--0--0--0--0--0--0--0-|
C|-------------------------------------------------|
 |
 |GTR II
d|-------------------------------------------------|
A|-------------------------------------------------|
F|--2--2--2--2--2--2--2--2--2--2--2--2--2--2--2--2-|
C|--2--2--2--2--2--2--2--2--2--2--2--2--2--2--2--2-|
G|--0--0--0--0--0--0--0--0--0--0--0--0--0--0--0--0-|
C|-------------------------------------------------|
 |
 |GTR III
d|-------------------------------------------------|
A|-------------------------------------------------|
F|--2--2--2--2--2--2--2--2--2--2--2--2--2--2--2--2-|
C|--2--2--2--2--2--2--2--2--2--2--2--2--2--2--2--2-|
G|--0--0--0--0--0--0--0--0--0--0--0--0--0--0--0--0-|
C|-------------------------------------------------|

  GTR I
d|-------------------------------------------------|
A|-------------------------------------------------|
F|--5--5--5--5--5--5--5--5--5--5--5----------------|
C|--5--5--5--5--5--5--5--5--5--5--5--x-----x-----x-|
G|--3--3--3--3--3--3--3--3--3--3--3--x-----x-----x-|
C|-----------------------------------x-----x-----x-|
 |
 |GTR II
d|-------------------------------------------------|
A|-------------------------------------------------|
F|--5--5--5--5--5--5--5--5--5--5--5----------------|
C|--5--5--5--5--5--5--5--5--5--5--5--x-----x-----x-|
G|--3--3--3--3--3--3--3--3--3--3--3--x-----x-----x-|
C|-----------------------------------x-----x-----x-|
 |
 |GTR III
d|-------------------------------------------------|
A|-------------------------------------------------|
F|--5--5--5--5--5--5--5--5--5--5--5----------------|
C|--5--5--5--5--5--5--5--5--5--5--5--x-----x-----x-|
G|--3--3--3--3--3--3--3--3--3--3--3--x-----x-----x-|
C|-----------------------------------x-----x-----x-|

Pre Verse

  GTR I
d|-------------------------------------------------|
A|--5-------/6\-5-----5-------/6\-5----------------|
F|--4-------/5\-4-----4-------/5\-4----------------|
C|--2-------/3\-2-----2-------/3\-2----------------|
G|--2-------/3\-2-----2-------/3\-2----------------|
C|--2-------/3\-2-----2-------/3\-2----------------|
 |
 |GTR II
d|-------------------------------------------------|
A|--5-------/6\-5-----5-------/6\-5----------------|
F|--4-------/5\-4-----4-------/5\-4----------------|
C|--2-------/3\-2-----2-------/3\-2----------------|
G|--2-------/3\-2-----2-------/3\-2----------------|
C|--2-------/3\-2-----2-------/3\-2----------------|
 |
 |GTR III
d|-------------------------------------------------|
A|--5----------------------------------------------|
F|--4----------------------------------------------|
C|--2----------------------------------------------|
G|--2----------------------------------------------|
C|--2----------------------------------------------|

  GTR I
d|-------------------------------------------------|
A|--5-------/6\-5-----3-------/6\-5----------------|
F|--4-------/5\-4-----2-------/5\-4----------------|
C|--2-------/3\-2-----0-------/3\-2----------------|
G|--2-------/3\-2-----0-------/3\-2-----2-----0----|
C|--2-------/3\-2-----0-------/3\-2-----2-----0----|
 |
 |GTR II 
d|-------------------------------------------------|
A|--5-------/6\-5-----3-------/6\-5----------------|
F|--4-------/5\-4-----2-------/5\-4----------------|
C|--2-------/3\-2-----0-------/3\-2----------------|
G|--2-------/3\-2-----0-------/3\-2-----2-----0----|
C|--2-------/3\-2-----0-------/3\-2-----2-----0----|
 |
 |GTR III
d|-------------------------------------------------|
A|--5----------------------------------------------|
F|--4----------------------------------------------|
C|--2----------------------------------------------|
G|--2----------------------------------------------|
C|--2----------------------------------------------|

  GTR I
d|-------------------------------------------------|
A|--5-------/6\-5-----5-------/6\-5----------------|
F|--4-------/5\-4-----4-------/5\-4----------------|
C|--2-------/3\-2-----2-------/3\-2-----x--x-------|
G|--2-------/3\-2-----2-------/3\-2-----x--x-------|
C|--2-------/3\-2-----2-------/3\-2-----x--x-------|
 |
 |GTR II
d|-------------------------------------------------|
A|--5-------/6\-5-----5-------/6\-5----------------|
F|--4-------/5\-4-----4-------/5\-4----------------|
C|--2-------/3\-2-----2-------/3\-2-----x--x-------|
G|--2-------/3\-2-----2-------/3\-2-----x--x-------|
C|--2-------/3\-2-----2-------/3\-2-----x--x-------|
 |
 |GTR III
d|-------------------------------------------------|
A|--5----------------------------------------------|
F|--4----------------------------------------------|
C|--2----------------------------------------------|
G|--2----------------------------------------------|
C|--2----------------------------------------------|

  GTR I
d|-------------------------------------------------|
A|--5-------/6\-5-----3-------/6\-5----------------|
F|--4-------/5\-4-----2-------/5\-4----------------|
C|--2-------/3\-2-----0-------/3\-2----------------|
G|--2-------/3\-2-----0-------/3\-2-----2-----0----|
C|--2-------/3\-2-----0-------/3\-2-----2-----0----|
 |
 |GTR II 
d|-------------------------------------------------|
A|--5-------/6\-5-----3-------/6\-5----------------|
F|--4-------/5\-4-----2-------/5\-4----------------|
C|--2-------/3\-2-----0-------/3\-2----------------|
G|--2-------/3\-2-----0-------/3\-2-----2-----0----|
C|--2-------/3\-2-----0-------/3\-2-----2-----0----|
 |
 |GTR III
d|-------------------------------------------------|
A|--5----------------------------------------------|
F|--4----------------------------------------------|
C|--2----------------------------------------------|
G|--2----------------------------------------------|
C|--2----------------------------------------------|

Verse

  GTR I                                            
d|-------------------------------------------------|
A|-------------------------------------------------|
F|-------------------------------------------------|
C|-------------------------------------------------|
G|-------------------------------------------------|
C|-------------------------------------------------|
 |
 |GTR II
d|-------------------------------------------------|
A|-------------------------------------------------|
F|-------------------------------------------------|
C|-------------------------------------------------|
G|--2--2--2--2--2-----2-----2--2--2----------------|
C|--2--2--2--2--2-----2-----2--2--2----------------|
    .  .  .  .  .     .     .  .  .

  GTR I                                            
d|-------------------------------------------------|
A|-------------------------------------------------|
F|-------------------------------------------------|
C|-------------------------------------------------|
G|-------------------------------------------------|
C|-------------------------------------------------|
 |
 |GTR II
d|-------------------------------------------------|
A|-------------------------------------------------|
F|-------------------------------------------------|
C|-------------------------------------------------|
G|--2--2--2--2--2-----2-----2--2--2----------------|
C|--2--2--2--2--2-----2-----2--2--2----------------|
    .  .  .  .  .     .     .  .  .

  GTR I                                            
d|-------------------------------------------------|
A|-------------------------------------------------|
F|-------------------------------------------------|
C|-------------------------------------------------|
G|-------------------------------------------------|
C|-------------------------------------------------|
 |
 |GTR II
d|-------------------------------------------------|
A|-------------------------------------------------|
F|-------------------------------------------------|
C|-------------------------------------------------|
G|--2--2--2--2--2-----2-----2--2--2----------------|
C|--2--2--2--2--2-----2-----2--2--2----------------|
    .  .  .  .  .     .     .  .  .

  GTR I                                            
d|-------------------------------------------------|
A|-------------------------------------------------|
F|-------------------------------------------------|
C|-------------------------------------------------|
G|-------------------------------------------------|
C|-------------------------------------------------|
 |
 |GTR II
d|-------------------------------------------------|
A|-------------------------------------------------|
F|-------------------------------------------------|
C|-------------------------------------------------|
G|--2--2--2--2--2-----2-----2--2--2----------------|
C|--2--2--2--2--2-----2-----2--2--2----------------|
    .  .  .  .  .     .     .  .  .

  GTR I                                            
d|-------------------------------------------------|
A|-------------------------------------------------|
F|-------------------------------------------------|
C|-------------------------------------------------|
G|-------------------------------------------------|
C|-------------------------------------------------|
 |
 |GTR II
d|-------------------------------------------------|
A|-------------------------------------------------|
F|-------------------------------------------------|
C|-------------------------------------------------|
G|--2--2--2--2--2-----2-----2--2--2----------------|
C|--2--2--2--2--2-----2-----2--2--2----------------|
    .  .  .  .  .     .     .  .  .

  GTR I                                            
d|-------------------------------------------------|
A|-------------------------------------------------|
F|-------------------------------------------------|
C|-------------------------------------------------|
G|-------------------------------------------------|
C|-------------------------------------------------|
 |
 |GTR II
d|-------------------------------------------------|
A|-------------------------------------------------|
F|-------------------------------------------------|
C|-------------------------------------------------|
G|--2--2--2--2--2-----2-----2--2--2----------------|
C|--2--2--2--2--2-----2-----2--2--2----------------|
    .  .  .  .  .     .     .  .  .

  GTR I                                            
d|-------------------------------------------------|
A|-------------------------------------------------|
F|-------------------------------------------------|
C|-------------------------------------------------|
G|-------------------------------------------------|
C|-------------------------------------------------|
 |
 |GTR II
d|-------------------------------------------------|
A|-------------------------------------------------|
F|-------------------------------------------------|
C|-------------------------------------------------|
G|--2--2--2--2--2-----2-----2--2--2----------------|
C|--2--2--2--2--2-----2-----2--2--2----------------|
    .  .  .  .  .     .     .  .  .

  GTR I
d|-------------------------------------------------|
A|-------------------------------------------------|
F|-------------------------------------------------|
C|--fbk---------------------------x----------------|
G|--fbk---------------------------x----------------|
C|--fbk---------------------------x----------------|
 |
 |GTR II
d|-------------------------------------------------|
A|-------------------------------------------------|
F|-------------------------------------------------|
C|-------------------------------------------------|
G|--2--2--2--2--2-----2-----2--2--2----------------|
C|--2--2--2--2--2-----2-----2--2--2----------------|
    .  .  .  .  .     .     .  .  .

Chorus 2

  GTR I
d|-------------------------------------------------|
A|-------------------------------------------------|
F|--2--2--2--2--2--2--2--2--2--2--2--2--2--2--2--2-|
C|--2--2--2--2--2--2--2--2--2--2--2--2--2--2--2--2-|
G|--0--0--0--0--0--0--0--0--0--0--0--0--0--0--0--0-|
C|-------------------------------------------------|
 |
 |GTR II
d|-------------------------------------------------|
A|-------------------------------------------------|
F|--2--2--2--2--2--2--2--2--2--2--2--2--2--2--2--2-|
C|--2--2--2--2--2--2--2--2--2--2--2--2--2--2--2--2-|
G|--0--0--0--0--0--0--0--0--0--0--0--0--0--0--0--0-|
C|-------------------------------------------------|
 |
 |GTR III
d|-------------------------------------------------|
A|-------------------------------------------------|
F|--2--2--2--2--2--2--2--2--2--2--2--2--2--2--2--2-|
C|--2--2--2--2--2--2--2--2--2--2--2--2--2--2--2--2-|
G|--0--0--0--0--0--0--0--0--0--0--0--0--0--0--0--0-|
C|-------------------------------------------------|

  GTR I
d|-------------------------------------------------|
A|-------------------------------------------------|
F|--5--5--5--5--5--5--5--5--5--5--5----------------|
C|--5--5--5--5--5--5--5--5--5--5--5--x-----x-----x-|
G|--3--3--3--3--3--3--3--3--3--3--3--x-----x-----x-|
C|-----------------------------------x-----x-----x-|
 |
 |GTR II
d|-------------------------------------------------|
A|-------------------------------------------------|
F|--5--5--5--5--5--5--5--5--5--5--5----------------|
C|--5--5--5--5--5--5--5--5--5--5--5--x-----x-----x-|
G|--3--3--3--3--3--3--3--3--3--3--3--x-----x-----x-|
C|-----------------------------------x-----x-----x-|
 |
 |GTR III
d|-------------------------------------------------|
A|-------------------------------------------------|
F|--5--5--5--5--5--5--5--5--5--5--5----------------|
C|--5--5--5--5--5--5--5--5--5--5--5--x-----x-----x-|
G|--3--3--3--3--3--3--3--3--3--3--3--x-----x-----x-|
C|-----------------------------------x-----x-----x-|

  GTR I
d|-------------------------------------------------|
A|--5-------/6\-5-----5-------/6\-5----------------|
F|--4-------/5\-4-----4-------/5\-4----------------|
C|--2-------/3\-2-----2-------/3\-2----------------|
G|--2-------/3\-2-----2-------/3\-2----------------|
C|--2-------/3\-2-----2-------/3\-2----------------|
 |
 |GTR II
d|-------------------------------------------------|
A|--5-------/6\-5-----5-------/6\-5----------------|
F|--4-------/5\-4-----4-------/5\-4----------------|
C|--2-------/3\-2-----2-------/3\-2----------------|
G|--2-------/3\-2-----2-------/3\-2----------------|
C|--2-------/3\-2-----2-------/3\-2----------------|
 |
 |GTR III
d|-------------------------------------------------|
A|--5----------------------------------------------|
F|--4----------------------------------------------|
C|--2----------------------------------------------|
G|--2----------------------------------------------|
C|--2----------------------------------------------|

  GTR I
d|-------------------------------------------------|
A|--5-------/6\-5-----3-------/6\-5----------------|
F|--4-------/5\-4-----2-------/5\-4----------------|
C|--2-------/3\-2-----0-------/3\-2----------------|
G|--2-------/3\-2-----0-------/3\-2-----2-----0----|
C|--2-------/3\-2-----0-------/3\-2-----2-----0----|
 |
 |GTR II 
d|-------------------------------------------------|
A|--5-------/6\-5-----3-------/6\-5----------------|
F|--4-------/5\-4-----2-------/5\-4----------------|
C|--2-------/3\-2-----0-------/3\-2----------------|
G|--2-------/3\-2-----0-------/3\-2-----2-----0----|
C|--2-------/3\-2-----0-------/3\-2-----2-----0----|
 |
 |GTR III
d|-------------------------------------------------|
A|--5----------------------------------------------|
F|--4----------------------------------------------|
C|--2----------------------------------------------|
G|--2----------------------------------------------|
C|--2----------------------------------------------|

  GTR I
d|-------------------------------------------------|
A|-------------------------------------------------|
F|--2--2--2--2--2--2--2--2--2--2--2--2--2--2--2--2-|
C|--2--2--2--2--2--2--2--2--2--2--2--2--2--2--2--2-|
G|--0--0--0--0--0--0--0--0--0--0--0--0--0--0--0--0-|
C|-------------------------------------------------|
 |
 |GTR II
d|-------------------------------------------------|
A|-------------------------------------------------|
F|--2--2--2--2--2--2--2--2--2--2--2--2--2--2--2--2-|
C|--2--2--2--2--2--2--2--2--2--2--2--2--2--2--2--2-|
G|--0--0--0--0--0--0--0--0--0--0--0--0--0--0--0--0-|
C|-------------------------------------------------|
 |
 |GTR III
d|-------------------------------------------------|
A|-------------------------------------------------|
F|--2--2--2--2--2--2--2--2--2--2--2--2--2--2--2--2-|
C|--2--2--2--2--2--2--2--2--2--2--2--2--2--2--2--2-|
G|--0--0--0--0--0--0--0--0--0--0--0--0--0--0--0--0-|
C|-------------------------------------------------|

  GTR I
d|-------------------------------------------------|
A|-------------------------------------------------|
F|--5--5--5--5--5--5--5--5--5--5--5----------------|
C|--5--5--5--5--5--5--5--5--5--5--5--x-----x-----x-|
G|--3--3--3--3--3--3--3--3--3--3--3--x-----x-----x-|
C|-----------------------------------x-----x-----x-|
 |
 |GTR II
d|-------------------------------------------------|
A|-------------------------------------------------|
F|--5--5--5--5--5--5--5--5--5--5--5----------------|
C|--5--5--5--5--5--5--5--5--5--5--5--x-----x-----x-|
G|--3--3--3--3--3--3--3--3--3--3--3--x-----x-----x-|
C|-----------------------------------x-----x-----x-|
 |
 |GTR III
d|-------------------------------------------------|
A|-------------------------------------------------|
F|--5--5--5--5--5--5--5--5--5--5--5----------------|
C|--5--5--5--5--5--5--5--5--5--5--5--x-----x-----x-|
G|--3--3--3--3--3--3--3--3--3--3--3--x-----x-----x-|
C|-----------------------------------x-----x-----x-|

  GTR I
d|-------------------------------------------------|
A|--5-------/6\-5-----5-------/6\-5----------------|
F|--4-------/5\-4-----4-------/5\-4----------------|
C|--2-------/3\-2-----2-------/3\-2----------------|
G|--2-------/3\-2-----2-------/3\-2----------------|
C|--2-------/3\-2-----2-------/3\-2----------------|
 |
 |GTR II
d|-------------------------------------------------|
A|--5-------/6\-5-----5-------/6\-5----------------|
F|--4-------/5\-4-----4-------/5\-4----------------|
C|--2-------/3\-2-----2-------/3\-2----------------|
G|--2-------/3\-2-----2-------/3\-2----------------|
C|--2-------/3\-2-----2-------/3\-2----------------|
 |
 |GTR III
d|-------------------------------------------------|
A|--5----------------------------------------------|
F|--4----------------------------------------------|
C|--2----------------------------------------------|
G|--2----------------------------------------------|
C|--2----------------------------------------------|

  GTR I
d|-------------------------------------------------|
A|--5-------/6\-5----------------------------------|
F|--4-------/5\-4----------------------------------|
C|--2-------/3\-2-----2-----2-----2-----2-----2----|
G|--2-------/3\-2-----2-----2-----2-----2-----2----|
C|--2-------/3\-2-----2-----2-----2-----2-----2----|
 |                    .     .     .     .     .
 |GTR II 
d|-------------------------------------------------|
A|--5-------/6\-5----------------------------------|
F|--4-------/5\-4----------------------------------|
C|--2-------/3\-2-----2-----2-----2-----2-----2----|
G|--2-------/3\-2-----2-----2-----2-----2-----2----|
C|--2-------/3\-2-----2-----2-----2-----2-----2----|
 |                    .     .     .     .     .
 |GTR III
d|-------------------------------------------------|
A|--5----------------------------------------------|
F|--4----------------------------------------------|
C|--2----------------------------------------------|
G|--2----------------------------------------------|
C|--2----------------------------------------------|

Bridge

  GTR I
d|-------------------------------------------------|
A|-------------------------------------------------|
F|--5--5--5--5--5--5--5--5--5--5--5--5--5--5--5--5-|
C|--5--5--5--5--5--5--5--5--5--5--5--5--5--5--5--5-|
G|--3--3--3--3--3--3--3--3--3--3--3--3--3--3--3--3-|
C|-------------------------------------------------|
 |
 |GTR II
d|-------------------------------------------------|
A|-------------------------------------------------|
F|--5--5--5--5--5--5--5--5--5--5--5--5--5--5--5--5-|
C|--5--5--5--5--5--5--5--5--5--5--5--5--5--5--5--5-|
G|--3--3--3--3--3--3--3--3--3--3--3--3--3--3--3--3-|
C|-------------------------------------------------|

  GTR I
d|-------------------------------------------------|
A|-------------------------------------------------|
F|-------------------------------------------------|
C|--5--5--5--5--5--5--5--5--5--5--5--5--5--5--5--5-|
G|--5--5--5--5--5--5--5--5--5--5--5--5--5--5--5--5-|
C|--5--5--5--5--5--5--5--5--5--5--5--5--5--5--5--5-|
 |
 |GTR II
d|-------------------------------------------------|
A|-------------------------------------------------|
F|-------------------------------------------------|
C|--5--5--5--5--5--5--5--5--5--5--5--5--5--5--5--5-|
G|--5--5--5--5--5--5--5--5--5--5--5--5--5--5--5--5-|
C|--5--5--5--5--5--5--5--5--5--5--5--5--5--5--5--5-|

  GTR I
d|-------------------------------------------------|
A|-------------------------------------------------|
F|--7--7--7--7--7--7--7--7--7--7--7--7--7--7--7--7-|
C|--7--7--7--7--7--7--7--7--7--7--7--7--7--7--7--7-|
G|--5--5--5--5--5--5--5--5--5--5--5--5--5--5--5--5-|
C|-------------------------------------------------|
 |
 |GTR II
d|-------------------------------------------------|
A|-------------------------------------------------|
F|--7--7--7--7--7--7--7--7--7--7--7--7--7--7--7--7-|
C|--7--7--7--7--7--7--7--7--7--7--7--7--7--7--7--7-|
G|--5--5--5--5--5--5--5--5--5--5--5--5--5--5--5--5-|
C|-------------------------------------------------|

  GTR I
d|-------------------------------------------------|
A|-------------------------------------------------|
F|-------------------------------------------------|
C|--7--7--7--7--7--7--7--7--7--7--7--7--7--7--7--7-|
G|--7--7--7--7--7--7--7--7--7--7--7--7--7--7--7--7-|
C|--7--7--7--7--7--7--7--7--7--7--7--7--7--7--7--7-|
 |
 |GTR II
d|-------------------------------------------------|
A|-------------------------------------------------|
F|-------------------------------------------------|
C|--7--7--7--7--7--7--7--7--7--7--7--7--7--7--7--7-|
G|--7--7--7--7--7--7--7--7--7--7--7--7--7--7--7--7-|
C|--7--7--7--7--7--7--7--7--7--7--7--7--7--7--7--7-|

    GTR I
d|-------------------------------------------------|
A|-------------------------------------------------|
F|--5--5--5--5--5--5--5--5--5--5--5--5--5--5--5--5-|
C|--5--5--5--5--5--5--5--5--5--5--5--5--5--5--5--5-|
G|--3--3--3--3--3--3--3--3--3--3--3--3--3--3--3--3-|
C|-------------------------------------------------|
 |
 |GTR II
d|-------------------------------------------------|
A|-------------------------------------------------|
F|--5--5--5--5--5--5--5--5--5--5--5--5--5--5--5--5-|
C|--5--5--5--5--5--5--5--5--5--5--5--5--5--5--5--5-|
G|--3--3--3--3--3--3--3--3--3--3--3--3--3--3--3--3-|
C|-------------------------------------------------|

  GTR I
d|-------------------------------------------------|
A|-------------------------------------------------|
F|-------------------------------------------------|
C|--5--5--5--5--5--5--5--5--5--5--5--5--5--5--5--5-|
G|--5--5--5--5--5--5--5--5--5--5--5--5--5--5--5--5-|
C|--5--5--5--5--5--5--5--5--5--5--5--5--5--5--5--5-|
 |
 |GTR II
d|-------------------------------------------------|
A|-------------------------------------------------|
F|-------------------------------------------------|
C|--5--5--5--5--5--5--5--5--5--5--5--5--5--5--5--5-|
G|--5--5--5--5--5--5--5--5--5--5--5--5--5--5--5--5-|
C|--5--5--5--5--5--5--5--5--5--5--5--5--5--5--5--5-|

  GTR I
d|-------------------------------------------------|
A|-------------------------------------------------|
F|-------------------------------------------------|
C|--3-----3-----3-----3----------------------------|
G|--3-----3-----3-----3----------------------------|
C|--3-----3-----3-----3----------------------------|
 |  .     .     .     .
 |GTR II
d|-------------------------------------------------|
A|-------------------------------------------------|
F|-------------------------------------------------|
C|--3-----3-----3-----3----------------------------|
G|--3-----3-----3-----3----------------------------|
C|--3-----3-----3-----3----------------------------|
    .     .     .     .

  GTR I
d|-------------------------------------------------|
A|-------------------------------------------------|
F|-------------------------------------------------|
C|--3-----3-----3-----3----------------------------|
G|--3-----3-----3-----3----------------------------|
C|--3-----3-----3-----3----------------------------|
 |  .     .     .     .
 |GTR II
d|-------------------------------------------------|
A|-------------------------------------------------|
F|-------------------------------------------------|
C|--3-----3-----3-----3----------------------------|
G|--3-----3-----3-----3----------------------------|
C|--3-----3-----3-----3----------------------------|
    .     .     .     .

Bridge 2

  GTR I
d|-------------------------------------------------|
A|-------------------------------------------------|
F|-------------------------------------------------|
C|-------------------------------------------------|
G|-------------------------------------------------|
C|-------------------------------------------------|
 |
 |GTR II
d|-------------------------------------------------|
A|-------------------------------------------------|
F|-------------------------------------------------|
C|-------------------------------------------------|
G|-------------------------------------------------|
C|-------------------------------------------------|

  GTR I
d|-------------------------------------------------|
A|-------------------------------------------------|
F|-------------------------------------------------|
C|-------------------------------------------------|
G|-------------------------------------------------|
C|-------------------------------------------------|
 |
 |GTR II
d|-------------------------------------------------|
A|-------------------------------------------------|
F|-------------------------------------------------|
C|-------------------------------------------------|
G|-------------------------------------------------|
C|-------------------------------------------------|

  GTR I
d|-------------------------------------------------|
A|-------------------------------------------------|
F|-------------------------------------------------|
C|-------------------------------------------------|
G|-------------------------------------------------|
C|-------------------------------------------------|
 |
 |GTR II
d|-------------------------------------------------|
A|-------------------------------------------------|
F|-------------------------------------------------|
C|-------------------------------------------------|
G|-------------------------------------------------|
C|-------------------------------------------------|

  GTR I
d|-------------------------------------------------|
A|-------------------------------------------------|
F|-------------------------------------------------|
C|--fbk--------------------------------------------|
G|--fbk--------------------------------------------|
C|--fbk--------------------------------------------|
 |
 |GTR II
d|-------------------------------------------------|
A|-------------------------------------------------|
F|-------------------------------------------------|
C|-------------------------------------------------|
G|-------------------------------------------------|
C|-------------------------------------------------|

Solo

  GTR I
d|-------------------------------------------------|
A|-------------------------------------------------|
F|-------------------------------------------------|
C|-------------------------------------------------|
G|-------------------------------------------------|
C|-------------------------------------------------|
 |
 |GTR II
d|-------------------------------------------------|
A|-------------------------------------------------|
F|-------------------------------------------------|
C|-------------------------------------------------|
G|--2--2--2--2--2-----2-----2--2--2----------------|
C|--2--2--2--2--2-----2-----2--2--2----------------|
 |  .  .  .  .  .     .     .  .  .
 |GTR III
d|-------------------------------------------------|
A|/12----10----------------------------------------|
F|------------/10-----9----------------------------|
C|------------------------/10-----9-----7-----6~---|
G|-------------------------------------------------|
C|-------------------------------------------------|

  GTR I
d|-------------------------------------------------|
A|-------------------------------------------------|
F|-------------------------------------------------|
C|-------------------------------------------------|
G|-------------------------------------------------|
C|-------------------------------------------------|
 |
 |GTR II
d|-------------------------------------------------|
A|-------------------------------------------------|
F|-------------------------------------------------|
C|-------------------------------------------------|
G|--2--2--2--2--2-----2-----2--2--2----------------|
C|--2--2--2--2--2-----2-----2--2--2----------------|
 |  .  .  .  .  .     .     .  .  .
 |GTR III
d|-------------------------------------------------|
A|/12----10----------------------------------------|
F|------------/10-----9----------------------------|
C|------------------------/10-----9-----7-----6~---|
G|-------------------------------------------------|
C|-------------------------------------------------|

  GTR I
d|-------------------------------------------------|
A|-------------------------------------------------|
F|-------------------------------------------------|
C|-------------------------------------------------|
G|-------------------------------------------------|
C|-------------------------------------------------|
 |
 |GTR II
d|-------------------------------------------------|
A|-------------------------------------------------|
F|-------------------------------------------------|
C|-------------------------------------------------|
G|--2--2--2--2--2-----2-----2--2--2----------------|
C|--2--2--2--2--2-----2-----2--2--2----------------|
 |  .  .  .  .  .     .     .  .  .
 |GTR III
d|-------------------------------------------------|
A|/12----10----------------------------------------|
F|------------/10-----9----------------------------|
C|------------------------/10-----9-----7-----6~---|
G|-------------------------------------------------|
C|-------------------------------------------------|

  GTR I
d|-------------------------------------------------|
A|-------------------------------------------------|
F|-------------------------------------------------|
C|-------------------------------------------------|
G|-------------------------------------------------|
C|-------------------------------------------------|
 |
 |GTR II
d|-------------------------------------------------|
A|-------------------------------------------------|
F|-------------------------------------------------|
C|-------------------------------------------------|
G|--2--2--2--2--2-----2-----2--2--2----------------|
C|--2--2--2--2--2-----2-----2--2--2----------------|
 |  .  .  .  .  .     .     .  .  .
 |GTR III
d|-------------------------------------------------|
A|/12----10----------------------------------------|
F|------------/10-----9----------------------------|
C|------------------------/10-----9-----7-----6~---|
G|-------------------------------------------------|
C|-------------------------------------------------|

  GTR I
d|-------------------------------------------------|
A|-------------------------------------------------|
F|-------------------------------------------------|
C|-------------------------------------------------|
G|-------------------------------------------------|
C|-------------------------------------------------|
 |
 |GTR II
d|-------------------------------------------------|
A|-------------------------------------------------|
F|-------------------------------------------------|
C|-------------------------------------------------|
G|--2--2--2--2--2-----2-----2--2--2----------------|
C|--2--2--2--2--2-----2-----2--2--2----------------|
 |  .  .  .  .  .     .     .  .  .
 |GTR III
d|-------------------------------------------------|
A|/12----10----------------------------------------|
F|------------/10-----9----------------------------|
C|------------------------/10-----9-----7-----6~---|
G|-------------------------------------------------|
C|-------------------------------------------------|

  GTR I
d|-------------------------------------------------|
A|-------------------------------------------------|
F|-------------------------------------------------|
C|-------------------------------------------------|
G|-------------------------------------------------|
C|-------------------------------------------------|
 |
 |GTR II
d|-------------------------------------------------|
A|-------------------------------------------------|
F|-------------------------------------------------|
C|-------------------------------------------------|
G|--2--2--2--2--2-----2-----2--2--2----------------|
C|--2--2--2--2--2-----2-----2--2--2----------------|
 |  .  .  .  .  .     .     .  .  .
 |GTR III
d|-------------------------------------------------|
A|/12----10----------------------------------------|
F|------------/10-----9----------------------------|
C|------------------------/10-----9-----7-----6~---|
G|-------------------------------------------------|
C|-------------------------------------------------|

  GTR I
d|-------------------------------------------------|
A|-------------------------------------------------|
F|-------------------------------------------------|
C|-------------------------------------------------|
G|-------------------------------------------------|
C|-------------------------------------------------|
 |
 |GTR II
d|-------------------------------------------------|
A|-------------------------------------------------|
F|-------------------------------------------------|
C|-------------------------------------------------|
G|--2--2--2--2--2-----2-----2--2--2----------------|
C|--2--2--2--2--2-----2-----2--2--2----------------|
 |  .  .  .  .  .     .     .  .  .
 |GTR III
d|-------------------------------------------------|
A|/12----10----------------------------------------|
F|------------/10-----9----------------------------|
C|------------------------/10-----9-----7-----6~---|
G|-------------------------------------------------|
C|-------------------------------------------------|

  GTR I
d|-------------------------------------------------|
A|-------------------------------------------------|
F|-------------------------------------------------|
C|-------------------------------------------------|
G|-------------------------------------------------|
C|-------------------------------------------------|
 |
 |GTR II
d|-------------------------------------------------|
A|-------------------------------------------------|
F|-------------------------------------------------|
C|-------------------------------------------------|
G|--2--2--2--2--2-----2-----2--2--2----------------|
C|--2--2--2--2--2-----2-----2--2--2----------------|
 |  .  .  .  .  .     .     .  .  .
 |GTR III
d|-------------------------------------------------|
A|/12----10----------------------------------------|
F|------------/10-----9----------------------------|
C|------------------------/10-----9-----7-----6~---|
G|-------------------------------------------------|
C|-------------------------------------------------|

Chorus 3

  GTR I
d|-------------------------------------------------|
A|-------------------------------------------------|
F|--2--2--2--2--2--2--2--2--2--2--2--2--2--2--2--2-|
C|--2--2--2--2--2--2--2--2--2--2--2--2--2--2--2--2-|
G|--0--0--0--0--0--0--0--0--0--0--0--0--0--0--0--0-|
C|-------------------------------------------------|
 |
 |GTR II
d|-------------------------------------------------|
A|-------------------------------------------------|
F|--2--2--2--2--2--2--2--2--2--2--2--2--2--2--2--2-|
C|--2--2--2--2--2--2--2--2--2--2--2--2--2--2--2--2-|
G|--0--0--0--0--0--0--0--0--0--0--0--0--0--0--0--0-|
C|-------------------------------------------------|
 |
 |GTR III
d|-------------------------------------------------|
A|-------------------------------------------------|
F|--2--2--2--2--2--2--2--2--2--2--2--2--2--2--2--2-|
C|--2--2--2--2--2--2--2--2--2--2--2--2--2--2--2--2-|
G|--0--0--0--0--0--0--0--0--0--0--0--0--0--0--0--0-|
C|-------------------------------------------------|

  GTR I
d|-------------------------------------------------|
A|-------------------------------------------------|
F|--5--5--5--5--5--5--5--5--5--5--5----------------|
C|--5--5--5--5--5--5--5--5--5--5--5--x-----x-----x-|
G|--3--3--3--3--3--3--3--3--3--3--3--x-----x-----x-|
C|-----------------------------------x-----x-----x-|
 |
 |GTR II
d|-------------------------------------------------|
A|-------------------------------------------------|
F|--5--5--5--5--5--5--5--5--5--5--5----------------|
C|--5--5--5--5--5--5--5--5--5--5--5--x-----x-----x-|
G|--3--3--3--3--3--3--3--3--3--3--3--x-----x-----x-|
C|-----------------------------------x-----x-----x-|
 |
 |GTR III
d|-------------------------------------------------|
A|-------------------------------------------------|
F|--5--5--5--5--5--5--5--5--5--5--5----------------|
C|--5--5--5--5--5--5--5--5--5--5--5--x-----x-----x-|
G|--3--3--3--3--3--3--3--3--3--3--3--x-----x-----x-|
C|-----------------------------------x-----x-----x-|

  GTR I
d|-------------------------------------------------|
A|--5-------/6\-5-----5-------/6\-5----------------|
F|--4-------/5\-4-----4-------/5\-4----------------|
C|--2-------/3\-2-----2-------/3\-2----------------|
G|--2-------/3\-2-----2-------/3\-2----------------|
C|--2-------/3\-2-----2-------/3\-2----------------|
 |
 |GTR II
d|-------------------------------------------------|
A|--5-------/6\-5-----5-------/6\-5----------------|
F|--4-------/5\-4-----4-------/5\-4----------------|
C|--2-------/3\-2-----2-------/3\-2----------------|
G|--2-------/3\-2-----2-------/3\-2----------------|
C|--2-------/3\-2-----2-------/3\-2----------------|
 |
 |GTR III
d|-------------------------------------------------|
A|--5----------------------------------------------|
F|--4----------------------------------------------|
C|--2----------------------------------------------|
G|--2----------------------------------------------|
C|--2----------------------------------------------|

  GTR I
d|-------------------------------------------------|
A|--5-------/6\-5-----3-------/6\-5----------------|
F|--4-------/5\-4-----2-------/5\-4----------------|
C|--2-------/3\-2-----0-------/3\-2----------------|
G|--2-------/3\-2-----0-------/3\-2-----2-----0----|
C|--2-------/3\-2-----0-------/3\-2-----2-----0----|
 |
 |GTR II 
d|-------------------------------------------------|
A|--5-------/6\-5-----3-------/6\-5----------------|
F|--4-------/5\-4-----2-------/5\-4----------------|
C|--2-------/3\-2-----0-------/3\-2----------------|
G|--2-------/3\-2-----0-------/3\-2-----2-----0----|
C|--2-------/3\-2-----0-------/3\-2-----2-----0----|
 |
 |GTR III
d|-------------------------------------------------|
A|--5----------------------------------------------|
F|--4----------------------------------------------|
C|--2----------------------------------------------|
G|--2----------------------------------------------|
C|--2----------------------------------------------|

  GTR I
d|-------------------------------------------------|
A|-------------------------------------------------|
F|--2--2--2--2--2--2--2--2--2--2--2--2--2--2--2--2-|
C|--2--2--2--2--2--2--2--2--2--2--2--2--2--2--2--2-|
G|--0--0--0--0--0--0--0--0--0--0--0--0--0--0--0--0-|
C|-------------------------------------------------|
 |
 |GTR II
d|-------------------------------------------------|
A|-------------------------------------------------|
F|--2--2--2--2--2--2--2--2--2--2--2--2--2--2--2--2-|
C|--2--2--2--2--2--2--2--2--2--2--2--2--2--2--2--2-|
G|--0--0--0--0--0--0--0--0--0--0--0--0--0--0--0--0-|
C|-------------------------------------------------|
 |
 |GTR III
d|-------------------------------------------------|
A|-------------------------------------------------|
F|--2--2--2--2--2--2--2--2--2--2--2--2--2--2--2--2-|
C|--2--2--2--2--2--2--2--2--2--2--2--2--2--2--2--2-|
G|--0--0--0--0--0--0--0--0--0--0--0--0--0--0--0--0-|
C|-------------------------------------------------|

  GTR I
d|-------------------------------------------------|
A|-------------------------------------------------|
F|--5--5--5--5--5--5--5--5--5--5--5----------------|
C|--5--5--5--5--5--5--5--5--5--5--5--x-----x-----x-|
G|--3--3--3--3--3--3--3--3--3--3--3--x-----x-----x-|
C|-----------------------------------x-----x-----x-|
 |
 |GTR II
d|-------------------------------------------------|
A|-------------------------------------------------|
F|--5--5--5--5--5--5--5--5--5--5--5----------------|
C|--5--5--5--5--5--5--5--5--5--5--5--x-----x-----x-|
G|--3--3--3--3--3--3--3--3--3--3--3--x-----x-----x-|
C|-----------------------------------x-----x-----x-|
 |
 |GTR III
d|-------------------------------------------------|
A|-------------------------------------------------|
F|--5--5--5--5--5--5--5--5--5--5--5----------------|
C|--5--5--5--5--5--5--5--5--5--5--5--x-----x-----x-|
G|--3--3--3--3--3--3--3--3--3--3--3--x-----x-----x-|
C|-----------------------------------x-----x-----x-|

  GTR I
d|-------------------------------------------------|
A|--5-------/6\-5-----5-------/6\-5----------------|
F|--4-------/5\-4-----4-------/5\-4----------------|
C|--2-------/3\-2-----2-------/3\-2----------------|
G|--2-------/3\-2-----2-------/3\-2----------------|
C|--2-------/3\-2-----2-------/3\-2----------------|
 |
 |GTR II
d|-------------------------------------------------|
A|--5-------/6\-5-----5-------/6\-5----------------|
F|--4-------/5\-4-----4-------/5\-4----------------|
C|--2-------/3\-2-----2-------/3\-2----------------|
G|--2-------/3\-2-----2-------/3\-2----------------|
C|--2-------/3\-2-----2-------/3\-2----------------|
 |
 |GTR III
d|-------------------------------------------------|
A|--5----------------------------------------------|
F|--4----------------------------------------------|
C|--2----------------------------------------------|
G|--2----------------------------------------------|
C|--2----------------------------------------------|

  GTR I
d|-------------------------------------------------|
A|--5-------/6\-5----------------------------------|
F|--4-------/5\-4----------------------------------|
C|--2-------/3\-2-----2-----2-----2-----2-----2----|
G|--2-------/3\-2-----2-----2-----2-----2-----2----|
C|--2-------/3\-2-----2-----2-----2-----2-----2----|
 |                    .     .     .     .     .
 |GTR II 
d|-------------------------------------------------|
A|--5-------/6\-5----------------------------------|
F|--4-------/5\-4----------------------------------|
C|--2-------/3\-2-----2-----2-----2-----2-----2----|
G|--2-------/3\-2-----2-----2-----2-----2-----2----|
C|--2-------/3\-2-----2-----2-----2-----2-----2----|
 |                    .     .     .     .     .
 |GTR III
d|-------------------------------------------------|
A|--5----------------------------------------------|
F|--4----------------------------------------------|
C|--2----------------------------------------------|
G|--2----------------------------------------------|
C|--2----------------------------------------------|

Bridge

  GTR I
d|-------------------------------------------------|
A|-------------------------------------------------|
F|--5--5--5--5--5--5--5--5--5--5--5--5--5--5--5--5-|
C|--5--5--5--5--5--5--5--5--5--5--5--5--5--5--5--5-|
G|--3--3--3--3--3--3--3--3--3--3--3--3--3--3--3--3-|
C|-------------------------------------------------|
 |
 |GTR II
d|-------------------------------------------------|
A|-------------------------------------------------|
F|--5--5--5--5--5--5--5--5--5--5--5--5--5--5--5--5-|
C|--5--5--5--5--5--5--5--5--5--5--5--5--5--5--5--5-|
G|--3--3--3--3--3--3--3--3--3--3--3--3--3--3--3--3-|
C|-------------------------------------------------|

  GTR I
d|-------------------------------------------------|
A|-------------------------------------------------|
F|-------------------------------------------------|
C|--5--5--5--5--5--5--5--5--5--5--5--5--5--5--5--5-|
G|--5--5--5--5--5--5--5--5--5--5--5--5--5--5--5--5-|
C|--5--5--5--5--5--5--5--5--5--5--5--5--5--5--5--5-|
 |
 |GTR II
d|-------------------------------------------------|
A|-------------------------------------------------|
F|-------------------------------------------------|
C|--5--5--5--5--5--5--5--5--5--5--5--5--5--5--5--5-|
G|--5--5--5--5--5--5--5--5--5--5--5--5--5--5--5--5-|
C|--5--5--5--5--5--5--5--5--5--5--5--5--5--5--5--5-|

  GTR I
d|-------------------------------------------------|
A|-------------------------------------------------|
F|--7--7--7--7--7--7--7--7--7--7--7--7--7--7--7--7-|
C|--7--7--7--7--7--7--7--7--7--7--7--7--7--7--7--7-|
G|--5--5--5--5--5--5--5--5--5--5--5--5--5--5--5--5-|
C|-------------------------------------------------|
 |
 |GTR II
d|-------------------------------------------------|
A|-------------------------------------------------|
F|--7--7--7--7--7--7--7--7--7--7--7--7--7--7--7--7-|
C|--7--7--7--7--7--7--7--7--7--7--7--7--7--7--7--7-|
G|--5--5--5--5--5--5--5--5--5--5--5--5--5--5--5--5-|
C|-------------------------------------------------|

  GTR I
d|-------------------------------------------------|
A|-------------------------------------------------|
F|-------------------------------------------------|
C|--7--7--7--7--7--7--7--7--7--7--7--7--7--7--7--7-|
G|--7--7--7--7--7--7--7--7--7--7--7--7--7--7--7--7-|
C|--7--7--7--7--7--7--7--7--7--7--7--7--7--7--7--7-|
 |
 |GTR II
d|-------------------------------------------------|
A|-------------------------------------------------|
F|-------------------------------------------------|
C|--7--7--7--7--7--7--7--7--7--7--7--7--7--7--7--7-|
G|--7--7--7--7--7--7--7--7--7--7--7--7--7--7--7--7-|
C|--7--7--7--7--7--7--7--7--7--7--7--7--7--7--7--7-|

  GTR I
d|-------------------------------------------------|
A|-------------------------------------------------|
F|-------------------------------------------------|
C|--3-----3-----3-----3-----3-----3-----3-----3----|
G|--3-----3-----3-----3-----3-----3-----3-----3----|
C|--3-----3-----3-----3-----3-----3-----3-----3----|
 |  .     .     .     .     .     .     .     .
 |GTR II
d|-------------------------------------------------|
A|-------------------------------------------------|
F|-------------------------------------------------|
C|--3-----3-----3-----3-----3-----3-----3-----3----|
G|--3-----3-----3-----3-----3-----3-----3-----3----|
C|--3-----3-----3-----3-----3-----3-----3-----3----|
    .     .     .     .     .     .     .     .

  GTR I
d|-------------------------------------------------|
A|-------------------------------------------------|
F|-------------------------------------------------|
C|--3-----3-----3-----3-----3-----3-----3-----3----|
G|--3-----3-----3-----3-----3-----3-----3-----3----|
C|--3-----3-----3-----3-----3-----3-----3-----3----|
 |  .     .     .     .     .     .     .     .
 |GTR II
d|-------------------------------------------------|
A|-------------------------------------------------|
F|-------------------------------------------------|
C|--3-----3-----3-----3-----3-----3-----3-----3----|
G|--3-----3-----3-----3-----3-----3-----3-----3----|
C|--3-----3-----3-----3-----3-----3-----3-----3----|
    .     .     .     .     .     .     .     .

  GTR I
d|-------------------------------------------------|
A|-------------------------------------------------|
F|--2--2--2--2--2--2--2--2--2--2--2--2--2--2--2--2-|
C|--2--2--2--2--2--2--2--2--2--2--2--2--2--2--2--2-|
G|--0--0--0--0--0--0--0--0--0--0--0--0--0--0--0--0-|
C|-------------------------------------------------|
 |
 |GTR II
d|-------------------------------------------------|
A|-------------------------------------------------|
F|--2--2--2--2--2--2--2--2--2--2--2--2--2--2--2--2-|
C|--2--2--2--2--2--2--2--2--2--2--2--2--2--2--2--2-|
G|--0--0--0--0--0--0--0--0--0--0--0--0--0--0--0--0-|
C|-------------------------------------------------|
 |
 |GTR III
d|-------------------------------------------------|
A|-------------------------------------------------|
F|--2--2--2--2--2--2--2--2--2--2--2--2--2--2--2--2-|
C|--2--2--2--2--2--2--2--2--2--2--2--2--2--2--2--2-|
G|--0--0--0--0--0--0--0--0--0--0--0--0--0--0--0--0-|
C|-------------------------------------------------|

  GTR I
d|-------------------------------------------------|
A|-------------------------------------------------|
F|--5--5--5--5--5--5--5--5--5--5--5--5--5--5--5--5-|
C|--5--5--5--5--5--5--5--5--5--5--5--5--5--5--5--5-|
G|--3--3--3--3--3--3--3--3--3--3--3--3--3--3--3--3-|
C|-------------------------------------------------|
 |
 |GTR II
d|-------------------------------------------------|
A|-------------------------------------------------|
F|--5--5--5--5--5--5--5--5--5--5--5--5--5--5--5--5-|
C|--5--5--5--5--5--5--5--5--5--5--5--5--5--5--5--5-|
G|--3--3--3--3--3--3--3--3--3--3--3--3--3--3--3--3-|
C|-------------------------------------------------|
 |
 |GTR III
d|-------------------------------------------------|
A|-------------------------------------------------|
F|--5--5--5--5--5--5--5--5--5--5--5--5--5--5--5--5-|
C|--5--5--5--5--5--5--5--5--5--5--5--5--5--5--5--5-|
G|--3--3--3--3--3--3--3--3--3--3--3--3--3--3--3--3-|
C|-------------------------------------------------|

  GTR I
d|-------------------------------------------------|
A|-------------------------------------------------|
F|--2--2--2--2--2--2--2--2--2--2--2--2--2--2--2--2-|
C|--2--2--2--2--2--2--2--2--2--2--2--2--2--2--2--2-|
G|--0--0--0--0--0--0--0--0--0--0--0--0--0--0--0--0-|
C|-------------------------------------------------|
 |
 |GTR II
d|-------------------------------------------------|
A|-------------------------------------------------|
F|--2--2--2--2--2--2--2--2--2--2--2--2--2--2--2--2-|
C|--2--2--2--2--2--2--2--2--2--2--2--2--2--2--2--2-|
G|--0--0--0--0--0--0--0--0--0--0--0--0--0--0--0--0-|
C|-------------------------------------------------|
 |
 |GTR III
d|-------------------------------------------------|
A|-------------------------------------------------|
F|--2--2--2--2--2--2--2--2--2--2--2--2--2--2--2--2-|
C|--2--2--2--2--2--2--2--2--2--2--2--2--2--2--2--2-|
G|--0--0--0--0--0--0--0--0--0--0--0--0--0--0--0--0-|
C|-------------------------------------------------|

  GTR I
d|-------------------------------------------------|
A|-------------------------------------------------|
F|--5--5--5--5--5--5--5--5--5--5--5--5--5--5--5--5-|
C|--5--5--5--5--5--5--5--5--5--5--5--5--5--5--5--5-|
G|--3--3--3--3--3--3--3--3--3--3--3--3--3--3--3--3-|
C|-------------------------------------------------|
 |
 |GTR II
d|-------------------------------------------------|
A|-------------------------------------------------|
F|--5--5--5--5--5--5--5--5--5--5--5--5--5--5--5--5-|
C|--5--5--5--5--5--5--5--5--5--5--5--5--5--5--5--5-|
G|--3--3--3--3--3--3--3--3--3--3--3--3--3--3--3--3-|
C|-------------------------------------------------|
 |
 |GTR III
d|-------------------------------------------------|
A|-------------------------------------------------|
F|--5--5--5--5--5--5--5--5--5--5--5--5--5--5--5--5-|
C|--5--5--5--5--5--5--5--5--5--5--5--5--5--5--5--5-|
G|--3--3--3--3--3--3--3--3--3--3--3--3--3--3--3--3-|
C|-------------------------------------------------|

  GTR I
d|-------------------------------------------------|
A|-------------------------------------------------|
F|--2--2--2--2--2--2--2--2--2--2--2--2--2--2--2--2-|
C|--2--2--2--2--2--2--2--2--2--2--2--2--2--2--2--2-|
G|--0--0--0--0--0--0--0--0--0--0--0--0--0--0--0--0-|
C|-------------------------------------------------|
 |
 |GTR II
d|-------------------------------------------------|
A|-------------------------------------------------|
F|--2--2--2--2--2--2--2--2--2--2--2--2--2--2--2--2-|
C|--2--2--2--2--2--2--2--2--2--2--2--2--2--2--2--2-|
G|--0--0--0--0--0--0--0--0--0--0--0--0--0--0--0--0-|
C|-------------------------------------------------|
 |
 |GTR III
d|-------------------------------------------------|
A|-------------------------------------------------|
F|--2--2--2--2--2--2--2--2--2--2--2--2--2--2--2--2-|
C|--2--2--2--2--2--2--2--2--2--2--2--2--2--2--2--2-|
G|--0--0--0--0--0--0--0--0--0--0--0--0--0--0--0--0-|
C|-------------------------------------------------|

  GTR I
d|-------------------------------------------------|
A|-------------------------------------------------|
F|--5--5--5--5--5--5--5--5--5--5--5----------------|
C|--5--5--5--5--5--5--5--5--5--5--5--x-----x-----x-|
G|--3--3--3--3--3--3--3--3--3--3--3--x-----x-----x-|
C|-----------------------------------x-----x-----x-|
 |
 |GTR II
d|-------------------------------------------------|
A|-------------------------------------------------|
F|--5--5--5--5--5--5--5--5--5--5--5----------------|
C|--5--5--5--5--5--5--5--5--5--5--5--x-----x-----x-|
G|--3--3--3--3--3--3--3--3--3--3--3--x-----x-----x-|
C|-----------------------------------x-----x-----x-|
 |
 |GTR III
d|-------------------------------------------------|
A|-------------------------------------------------|
F|--5--5--5--5--5--5--5--5--5--5--5----------------|
C|--5--5--5--5--5--5--5--5--5--5--5--x-----x-----x-|
G|--3--3--3--3--3--3--3--3--3--3--3--x-----x-----x-|
C|-----------------------------------x-----x-----x-|

  GTR I
d|-------------------------------------------------|
A|--5-------/6\-5-----5-------/6\-5----------------|
F|--4-------/5\-4-----4-------/5\-4----------------|
C|--2-------/3\-2-----2-------/3\-2----------------|
G|--2-------/3\-2-----2-------/3\-2----------------|
C|--2-------/3\-2-----2-------/3\-2----------------|
 |
 |GTR II
d|-------------------------------------------------|
A|--5-------/6\-5-----5-------/6\-5----------------|
F|--4-------/5\-4-----4-------/5\-4----------------|
C|--2-------/3\-2-----2-------/3\-2----------------|
G|--2-------/3\-2-----2-------/3\-2----------------|
C|--2-------/3\-2-----2-------/3\-2----------------|
 |
 |GTR III
d|-------------------------------------------------|
A|--5----------------------------------------------|
F|--4----------------------------------------------|
C|--2----------------------------------------------|
G|--2----------------------------------------------|
C|--2----------------------------------------------|

  GTR I
d|-------------------------------------------------|
A|--5-------/6\-5-----3-------/6\-5----------------|
F|--4-------/5\-4-----2-------/5\-4----------------|
C|--2-------/3\-2-----0-------/3\-2----------------|
G|--2-------/3\-2-----0-------/3\-2-----2-----0----|
C|--2-------/3\-2-----0-------/3\-2-----2-----0----|
 |
 |GTR II 
d|-------------------------------------------------|
A|--5-------/6\-5-----3-------/6\-5----------------|
F|--4-------/5\-4-----2-------/5\-4----------------|
C|--2-------/3\-2-----0-------/3\-2----------------|
G|--2-------/3\-2-----0-------/3\-2-----2-----0----|
C|--2-------/3\-2-----0-------/3\-2-----2-----0----|
 |
 |GTR III
d|-------------------------------------------------|
A|--5----------------------------------------------|
F|--4----------------------------------------------|
C|--2----------------------------------------------|
G|--2----------------------------------------------|
C|--2----------------------------------------------|

  GTR I
d|-------------------------------------------------|
A|--5-------/6\-5-----5-------/6\-5----------------|
F|--4-------/5\-4-----4-------/5\-4----------------|
C|--2-------/3\-2-----2-------/3\-2----------------|
G|--2-------/3\-2-----2-------/3\-2----------------|
C|--2-------/3\-2-----2-------/3\-2----------------|
 |
 |GTR II
d|-------------------------------------------------|
A|--5-------/6\-5-----5-------/6\-5----------------|
F|--4-------/5\-4-----4-------/5\-4----------------|
C|--2-------/3\-2-----2-------/3\-2----------------|
G|--2-------/3\-2-----2-------/3\-2----------------|
C|--2-------/3\-2-----2-------/3\-2----------------|
 |
 |GTR III
d|-------------------------------------------------|
A|--5----------------------------------------------|
F|--4----------------------------------------------|
C|--2----------------------------------------------|
G|--2----------------------------------------------|
C|--2----------------------------------------------|

  GTR I
d|-------------------------------------------------|
A|--5-------/6\-5-----3----------------------------|
F|--4-------/5\-4-----2----------------------------|
C|--2-------/3\-2-----0--------5-------------------|
G|--2-------/3\-2-----0--------5-------------------|
C|--2-------/3\-2-----0--------5-------------------|
 |
 |GTR II 
d|-------------------------------------------------|
A|--5-------/6\-5-----3----------------------------|
F|--4-------/5\-4-----2----------------------------|
C|--2-------/3\-2-----0--------5-------------------|
G|--2-------/3\-2-----0--------5-------------------|
C|--2-------/3\-2-----0--------5-------------------|
 |
 |GTR III
d|-------------------------------------------------|
A|--5----------------------------------------------|
F|--4----------------------------------------------|
C|--2----------------------------------------------|
G|--2----------------------------------------------|
C|--2----------------------------------------------|



|fbk feedback
| /  slide up
| \  slide down
| h  hammer-on
| p  pull-off
| ~  vibrato
| +  harmonic
| x  Mute note
===============================================================================

Suggest correction new What's this?
You can suggest a correction to this tab. Community and Mods will review your correction and vote to approve or reject it.
comments
We did not receive enough feedback on this tab! Please rate:
print report bad tab
1 2 3 4 5
1 comment total.
0 reply
shiick 14 wrote on April 7 2010, 11:18 am

Figure out that solo!! haha... I've been searching by user, just checking out your tabs lately

guest
You may want to rate the tab now too:
select rating
Please do not post tabs as comments. Select "correction" instead!