Oops, an error
Loading. Please wait.

Hollywood Tab

version 3
version 3
348 views 1 this week
no commentswrite comment
1 2 3 4 5
please rate
add to favorites
launch autoscroll
font size
0
reset
how to read this tab
guitar tuner
Autoscroll
slow
fast
+/-
esc
set tempo
stop
Help us to improve Ultimate-Guitar.com Take our survey!
×
Author
Difficulty
Tuning
novice
D A D G B E
e|----------------------------------------|
B|----------------------------------------|
G|----------------------------------------|
D|10b-8--10b-8--XX--10b-8--3/5/3-88-5/3/5-|                     x4
A|10b-8--10b-8--XX--10b-8--3/5/3-88-5/3/5-|
D|10b-8--10b-8--XX--10b-8--3/5/3-88-5/3/5-|


e|--------------------------------------------|
B|--------------------------------------------|
G|--------------------------------------------|                 x2
D|101010-8-101010-8--101010-8--3/5/3-88-5/3/5-|
A|101010-8-101010-8--101010-8--3/5/3-88-5/3/5-|
D|101010-8-101010-8--101010-8--3/5/3-88-5/3/5-|


e|----------------------------------------|
B|----------------------------------------|
G|----------------------------------------|
D|10b-8--10b-8--XX--10b-8--3/5/3-88-5/3/5-|                     x2
A|10b-8--10b-8--XX--10b-8--3/5/3-88-5/3/5-|
D|10b-8--10b-8--XX--10b-8--3/5/3-88-5/3/5-|


e|--------------------------------------------|
B|--------------------------------------------|
G|--------------------------------------------|                 x2
D|101010-8-101010-8--101010-8--3/5/3-88-5/3/5-|
A|101010-8-101010-8--101010-8--3/5/3-88-5/3/5-|
D|101010-8-101010-8--101010-8--3/5/3-88-5/3/5-|


CHORUS:
e|----------------------------------|
B|----------------------------------|
G|----------------------------------|                           x4
D|10-8-10-8--10-8-------------------|
A|10-8-10-8--10-8-------------------|
D|10-8-10-8--10-8-------------------|  


e|----------------------------------------|
B|----------------------------------------|
G|----------------------------------------|
D|10b-8--10b-8--XX--10b-8--3/5/3-88-5/3/5-|                     x2
A|10b-8--10b-8--XX--10b-8--3/5/3-88-5/3/5-|
D|10b-8--10b-8--XX--10b-8--3/5/3-88-5/3/5-|


SOLO:
e|------------------------------------------------|
B|5-3-5-3----------------5-3----------33----------|
G|-----------------3------------------33----------|
D|-------------3-5---5-3-------3-5--------5-3-5---|
A|------------------------------------------------|
D|------------------------------------------------|

e|------------------------------------------------|
B|5-3-5-3----------------5-3----------33----------|
G|-----------------3------------------33----------|
D|-------------3-5---5-3-------3-5-------5-3-5----|
A|------------------------------------------------|
D|------------------------------------------------|

e|8-6-8-6----------------8-6----------------------|
B|------------------------------------66----------|
G|-----------------6------------------66----------|
D|-------------6-8---8-6-------6-8-------8-6-8----|
A|------------------------------------------------|
D|------------------------------------------------| 

                    Not Sure About This
e|--------------------------------------------------|
B|-/13~~11--11-11h13-11---11-13b-13-11-11h13-11h13~-|
G|--------------------------------------------------|
D|--------------------------------------------------|
A|--------------------------------------------------|
D|--------------------------------------------------|

e|-------------------------------------|
B|-11---11-11h13-11-13b--13-11-11h13~~-|
G|-------------------------------------|
D|-------------------------------------|
A|-------------------------------------| 
D|-------------------------------------|


POST-SOLO:
e|--------------------------------------------------|
B|--------------------------------------------------|
G|--------------------------------------------------|            2X
D|--------------------------------------------------|
A|--------------------------------------------------|
D|101010-8-10-1010-8--0/8-101010-8-3-5-3-88-5-3-5---|


e|--------------------------------------------------|
B|--------------------------------------------------|
G|--------------------------------------------------|
D|--------------------------------------------------|            x2
A|--------------------------------------------------|
D|10b-8--10b-8--XX--10b-8--3/5/3-88-5/3/5-----------|


e|----------------------------------|
B|----------------------------------|
G|----------------------------------|                            x4
D|10-8-10-8--10-8-------------------|
A|10-8-10-8--10-8-------------------|
D|10-8-10-8--10-8-------------------| 

Suggest correction
Give kudos to tab author, rate the tab!
1 2 3 4 5
comments
print report bad tab
guest
You may want to rate the tab now too:
select rating
Please do not post tabs as comments. Select "correction" instead!