Oops, an error
Loading. Please wait.

Hollywood Tab

version 4
version 4
1,191 views 3 this week
2 commentsread comments
1 2 3 4 5
excellent!
x 2
add to favorites
launch autoscroll
font size
0
reset
how to read this tab
guitar tuner
Tab Pro tools
  • play this tab
  • loop segment
  • change instrument
  • show fretboard
  • metronome
Autoscroll
slow
fast
+/-
esc
set tempo
stop
Contributor
Difficulty
intermediate
intro:

x2
|--------------------------------------------------------------------------|
|--------------------------------------------------------------------------|
|--------------------------------------------------------------------------|
|--------------------------------------------------------------------------|
|-12b--10--12b--10-----12b--10---5-7-5-10-10-7-5-7-------------------------|
|-12b--10--12b--10-----12b--10---5-7-5-10-10-7-5-7-------------------------|

x2
|--------------------------------------------------------------------------|
|--------------------------------------------------------------------------|
|--------------------------------------------------------------------------|
|-0------0--------0--------------------------------------------------------|
|-0--10--0--10----0--10--5-7-5-10-10-7-5-7---------------------------------|
|-0--10--0--10----0--10--5-7-5-10-10-7-5-7---------------------------------|

verse:
x2
|--------------------------------------------------------------------------|
|--------------------------------------------------------------------------|
|--------------------------------------------------------------------------|
|--------------------------------------------------------------------------|
|--------------------------------------------------------------------------|
|-12-12-12b-10---12-12-12b-10----12-12-12b-10--5-7-5-10-10-7-5-7-----------|

x2
|--------------------------------------------------------------------------|
|--------------------------------------------------------------------------|
|--------------------------------------------------------------------------|
|-0------0--------0--------------------------------------------------------|
|-0--10--0--10----0--10--5-7-5-10-10-7-5-7---------------------------------|
|-0--10--0--10----0--10--5-7-5-10-10-7-5-7---------------------------------|

x2
|--------------------------------------------------------------------------|
|--------------------------------------------------------------------------|
|--------------------------------------------------------------------------|
|--------------------------------------------------------------------------|
|--------------------------------------------------------------------------|
|-12-12-12b-10---12-12-12b-10----12-12-12b-10--5-7-5-10-10-7-5-7-----------|

chorus:
x3
|--------------------------------------------------------------------------|
|--------------------------------------------------------------------------|
|--------------------------------------------------------------------------|
|-0------0--------0--------------------------------------------------------|
|-0--10--0--10----0--10----------------------------------------------------|
|-0--10--0--10----0--10----------------------------------------------------|

x1
|--------------------------------------------------------------------------|
|--------------------------------------------------------------------------|
|--------------------------------------------------------------------------|
|-0------0--------0--------------------------------------------------------|
|-0--10--0--10----0--10--5-7-5-10-10-7-5-7---------------------------------|
|-0--10--0--10----0--10--5-7-5-10-10-7-5-7---------------------------------|

solo:
guitar 2 ryan

|--------------------------------------------------------------------------|
|--------------------------------------------------------------------------|
|--------------------------------------------------------------------------|
|-0------0--------0--------------------------------------------------------|
|-0--10--0--10----0--10--5-7-5-10-10-7-5-7---------------------------------|
|-0--10--0--10----0--10--5-7-5-10-10-7-5-7---------------------------------|

guitar 1 Chad
with wah
|--------------------------------------------------------------------------|
|---------------------2----------------------------------------------------|
|------0-0-0-0-2----0-2-0-/5-5---------------------------------------------|
|------0-0-0-0-2----0-2-0-/5-5-7-5-7---------------------------------------|
|------------------------------7-5-7---------------------------------------|
|--------------------------------------------------------------------------|

|--------------------------------------------------------------------------|
||-------------------------------------------------------------------------|
|------0-0-0-0-2---0-2/14--------------------------------------------------|
|------0-0-0-0-2---0-2/14--------------------------------------------------|
|--------------------------------------------------------------------------|
|--------------------------------------------------------------------------|

|--------------------------------------------------------------------------|
|-5/7~--5---7~~--5-------------5/7~--5-----------------5-------------------|
|---------5------------5----------------------5--------5-------------------|
|------------------5-7---7-5------------5-7-5---7-5-7----------------------|
|--------------------------------------------------------------------------|
|--------------------------------------------------------------------------|

|--------------------------------------------------------------------------|
|-5/7~--5---5/7~---5--5-----5----5--5/7~---5--------/5-5---------5---------|
|---------x--------5--5-----5----5---------5--5-7-5------7-5-7-------------|
|------------------------7-----7-------------------------------------------|
|--------------------------------------------------------------------------|
|--------------------------------------------------------------------------|

|-10~--8---8h10~~--8-8-8-10b-10-8-10--8/10~--8--8-10-8-10b--10-8h10/-------|
|--------------------------------------------------------------------------|
|--------------------------------------------------------------------------|
|--------------------------------------------------------------------------|
|--------------------------------------------------------------------------|
|--------------------------------------------------------------------------|

|------------17-----20-----------------22-------22----22-------------------|
|--20b-20---------------------17----------17----------------17-------------|
|--19b---19b~~~~19~~~~~--19b~~~~--19b~~~~~~~~19~~~~19~~~~19~~~~19~~~~19/---|
|--------------------------------------------------------------------------|
|--------------------------------------------------------------------------|
|--------------------------------------------------------------------------|



guitar 1&2
x2
|--------------------------------------------------------------------------|
|--------------------------------------------------------------------------|
|--------------------------------------------------------------------------|
|--------------------------------------------------------------------------|
|--------------------------------------------------------------------------|
|-12-12-12b-10---12-12-12b-10----12-12-12b-10--5-7-5-10-10-7-5-7-----------|

bridge:
x2
|--------------------------------------------------------------------------|
|--------------------------------------------------------------------------|
|--------------------------------------------------------------------------|
|--------------------------------------------------------------------------|
|--------------------------------------------------------------------------|
|--12b-10----12b-10----1-12b-10--------------------------------------------|

chorus:

x3
|--------------------------------------------------------------------------|
|--------------------------------------------------------------------------|
|--------------------------------------------------------------------------|
|-0------0--------0--------------------------------------------------------|
|-0--10--0--10----0--10----------------------------------------------------|
|-0--10--0--10----0--10----------------------------------------------------|

x1
|--------------------------------------------------------------------------|
|--------------------------------------------------------------------------|
|--------------------------------------------------------------------------|
|-0------0--------0--------------------------------------------------------|
|-0--10--0--10----0--10--5-7-5-10-10-7-5-7---------------------------------|
|-0--10--0--10----0--10--5-7-5-10-10-7-5-7---------------------------------|


comments
We did not receive enough feedback on this tab! Please rate:
print report bad tab
1 2 3 4 5
2 comments total.
0 reply
grenzow_69 wrote on July 19 2007, 02:27 am

good job but the solo is kinda confusing but it soounds right

0 reply
grenzow_69 wrote on July 19 2007, 03:54 am

lol didnt coment myself a friend on my computer did just so you guys know....

I want to post or [tab]
guest
You may want to rate the tab now too:
select rating
Please do not post tabs as comments. Select "correction" instead!