Oops, an error
Loading. Please wait.

Hollywood Tab

version 5
version 5
2,709 views 3 this week
no commentswrite comment
1 2 3 4 5
please rate
add to favorites
launch autoscroll
font size
0
reset
how to read this tab
guitar tuner
Tab Pro tools
  • play this tab
  • loop segment
  • change instrument
  • show fretboard
  • metronome
×
Best way to learn
"Hollywood"
Autoscroll
slow
fast
+/-
esc
set tempo
stop
Difficulty
Tuning
novice
D A D G B E
Key:
b- bend
x- scratch
/- slide
sus- sustain until next chord
PM- palm mute

INTRO:
e|----------------------------------------|
B|----------------------------------------|
G|----------------------------------------|
D|10b-8--10b-8--XX--10b-8--3/5/3-88-5/3/5-|
A|10b-8--10b-8--XX--10b-8--3/5/3-88-5/3/5-|
D|10b-8--10b-8--XX--10b-8--3/5/3-88-5/3/5-|
    \______|__________/                 \_(hit this 5, even though you slide
     (only bend slightly,                 the whole time)(do this through the
      not all the way)                     whole song)

PRE-VERSE:
e|--------------------------------------------------|
B|--------------------------------------------------|
G|--------------------------------------------------|
D|10sus-8sus-10sus-8sus--10sus-8sus--3/5/3-88-5/3/5-|
A|10sus-8sus-10sus-8sus--10sus-8sus--3/5/3-88-5/3/5-|
D|10sus-8sus-10sus-8sus--10sus-8sus--3/5/3-88-5/3/5-|

VERSE:
e|--------------------------------------------|
B|--------------------------------------------|
G|--------------------------------------------|
D|101010-8-101010-8--101010-8--3/5/3-88-5/3/5-|
A|101010-8-101010-8--101010-8--3/5/3-88-5/3/5-|
D|101010-8-101010-8--101010-8--3/5/3-88-5/3/5-|

CHORUS:
e|----------------------------------|
B|----------------------------------|
G|----------------------------------|   (Pause; then bass goes)
D|10sus-8sus-10sus-8sus--10sus-8----|sus
A|10sus-8sus-10sus-8sus--10sus-8----|sus
D|10sus-8sus-10sus-8sus--10sus-8----|sus

e|--------------------------------------------------|
B|--------------------------------------------------|
G|--------------------------------------------------|
D|10sus-8sus-10sus-8sus--10sus-8sus--3/5/3-88-5/3/5-|
A|10sus-8sus-10sus-8sus--10sus-8sus--3/5/3-88-5/3/5-|
D|10sus-8sus-10sus-8sus--10sus-8sus--3/5/3-88-5/3/5-|

PRE-SOLO:
e|---------------------------------------------------------|
B|---------------------------------------------------------|
G|---------------------------------------------------------|
D|10sus-8sus-10sus-8sus-8888/10-10sus-8sus--3/5/3-88-5/3/5-|
A|10sus-8sus-10sus-8sus-8888/10-10sus-8sus--3/5/3-88-5/3/5-|
D|10sus-8sus-10sus-8sus---------10sus-8sus-----------------|

SOLO:
e|------------------------------------------|
B|5sus-3-5sus-3----------5sus-3----33-------|
G|-----------------3---------------33-------|
D|-------------3-5---5-3-------3-5----5-3-5-|
A|------------------------------------------|
D|------------------------------------------|

e|------------------------------------------|
B|5sus-3-5sus-3----------5sus-3----33-------|
G|-----------------3---------------33-------|
D|-------------3-5---5-3-------3-5----5-3-5-|
A|------------------------------------------|
D|------------------------------------------|

e|8sus-6-8sus-6----------8sus-6-------------|
B|---------------------------------33-------|
G|-----------------3---------------33-------|
D|-------------3-5---5-3-------3-5----5-3-5-|
A|------------------------------------------|
D|------------------------------------------| (I'm not sure about the next part)

POST-SOLO:
e|--------------------------------------------------|
B|--------------------------------------------------|
G|--------------------------------------------------|  2X
D|--------------------------------------------------|
A|--------------------------------------------------|
D|101010-8-10-1010-8--0/8-101010-8-3-5-3-88-5-3-5---|
  PMPMPM PMPM PMPM PM     PMPMPM PMPMPMPMPM PMPMPM

e|----------------|
B|----------------|
G|----------------| (Pause, bass goes)
D|----------------|
A|----------------|
D|10-8-10-8--10-8-|

e|-------------------------------|
B|-------------------------------|
G|-------------------------------|
D|---------------           7/15-|
A|---------------Pick Slide:7/15-| (I'm not sure exatcly where you slide, but
D|10-8-10-8--10-8           7/15-|  its definately a pick slide something like
                                  this)

Order:
Intro 2X
Pre-Verse 2X
Verse 2X
Pre-Verse 2X
Verse 2X
Chorus 2x
Pre-Solo 2X
Solo 1X
Post-Solo 1X
Chorus 2x (sustain last note)
comments
We did not receive enough feedback on this tab! Please rate:
print report bad tab
1 2 3 4 5
I want to post or [tab]
guest
You may want to rate the tab now too:
select rating
Please do not post tabs as comments. Select "correction" instead!