Oops, an error
Loading. Please wait.

How You Remind Me Tab

version 1
20,926 views 6 this week
no commentswrite comment
1 2 3 4 5
x 3
add to favorites
launch autoscroll
font size
0
reset
how to read this tab
guitar tuner
Autoscroll
slow
fast
+/-
esc
set tempo
stop
Help us to improve Ultimate-Guitar.com Take our survey!
×
Difficulty
intermediate
Nickelback
How You Remind Me (Acoustic)

Posted by Scott Erlichman
scott@erlichman.biz

This is my first tab, but it sounds right on.


Verse A

   C     C/Bb    A#    A#/F
E|-x--x--x--x----1--1--1--1---------------------|
B|-x--x--x--x----1--1--1--1---------------------|
G|-5—-5--5--5----3--3--3--3---------------------|
D|-5—-5--5--5----3--3--3--3---------------------|
A|-7—-7--7--7----1--1--1--1---------------------|
E|-8--8--6--6----------1--1---------------------|

Verse A1

E|----------------------------------------------|
B|----------------------------------------------|
G|------5---------------------------------------|
D|----5--------8-------10-----------------------|
A|--3--------6-------8--------------------------|
E|---------4------/6----------------------------|

Verse A2

   C     C/Bb    A#    A#/F
E|-x--x--x--x----1--1--1--1---------------------|
B|-x--x--x--x----1--1--1--1---------------------|
G|-5—-5--5--5----3--3--3--3---------------------|
D|-5—-5--5--5----3--3--3--3---------------------|
A|-7—-7--7--7----1--1--1--1---------------------|
E|-8--8--6--6----------1------------------------|

Chorus A
   C     Eb      Bb    F
E|-x--x--x--x----x--x--1--1---------------------|
B|-5--5--x--x----3--3--1--1---------------------|
G|-5—-5--4--4----3--3--2--2---------------------|
D|-5—-5--3--3----3--3--3--3---------------------|
A|-3—-3--1--1----1--1--3--3---------------------|
E|-x--x--1--1----x--x--1--1---------------------|

Chorus A1
   C     Eb      Bb
E|-x--x--x--x----x------------------------------|
B|-5--5--x--x----3------------------------------|
G|-5—-5--4--4----3------------------------------|
D|-5—-5--3--3----3------------------------------|
A|-3—-3--1--1----1------------------------------|
E|-x--x--1--1----x------------------------------|

Chorus B

   C     Eb      Bb    A#/F
E|-x--x--x--x----x--x--x--x---------------------|
B|-5--5--x--x----3--3--3--3---------------------|
G|-5—-5--4--4----3--3--3--3---------------------|
D|-5—-5--3--3----3--3--3--3---------------------|
A|-3—-3--1--1----1--1--1--1---------------------|
E|-x--x--1--1----x--x--1--1---------------------|

Chorus B1

E|----------------------------------------------|
B|----------------------------------------------|
G|------5-----------------3---------------------|
D|----5---5------5------3---3------3------------|
A|--3----------3---3--1----------1--------------|
E|-----------1-----------------1----------------|


Order to play each part

Verse A
Verse A
Verse A1
Verse A
Verse A
Chorus A
Chorus A
Chorus A
Chorus A
Chorus B
Chorus B
Verse A
Verse A
Verse A
Verse A
Chorus A
Chorus A
Chorus A
Chorus A
Chorus B1
Chorus B1
Verse A2
Verse A
Verse A1
Verse A1
Verse A
Verse A
Chorus A
Chorus A1
Chorus A
Chorus A
Chorus B
Chorus B
Chorus B
Chorus B
Suggest correction
Give kudos to tab author, rate the tab!
1 2 3 4 5
comments
print report bad tab
guest
You may want to rate the tab now too:
select rating
Wanna post a correction for this tab? Suggest correction