Oops, an error
Loading. Please wait.

How You Remind Me Bass Tab

version 4
version 4
12,328 views 24 this week
4 commentsread comments
1 2 3 4 5
x 6
add to favorites
launch autoscroll
font size
0
reset
guitar tuner
Autoscroll
slow
fast
+/-
esc
set tempo
stop
Help us to improve Ultimate-Guitar.com Take our survey!
×
Author
Difficulty
Tuning
novice
D A D G B E
Hi des hier is mein erster tab also seid bitte nicht so streng :)
Tuning : GDAD (Drop D)

bass kommt nach 0:17:

Vers:
   (This is how ...)
G:|---------------------|
D:|---------------------|    x2
A:|-3333------1111------|
D:|------3333------1111-|

Chorus:

G:|---------------------|
D:|---------------------|    x2
A:|-3333------1111------|
D:|------1111------3333-|


   (I've been wrong, ...)
G:|---------------------|   G:|---------------------|
D:|---------------------|   D:|---------------------|
A:|-33------1111--------|   A:|-3333------1111------|
D:|-----11--------3333--|   D:|------1111------3333-|

   (Yeah, ...)
G:|---------------------|
D:|---------------------|    x2
A:|-3333------1111------|
D:|------3333------1111-|
 
Bridge:

G:|---------------------|
D:|---------------------|    x2
A:|-3333------1111------|
D:|------3333------1111-|


Vers:
   (This is how ...)
G:|---------------------|
D:|---------------------|    x2
A:|-3333------1111------|
D:|------3333------1111-|

Chorus:

G:|---------------------|
D:|---------------------|    x2
A:|-3333------1111------|
D:|------1111------3333-|

   (I've been wrong, ...)
G:|---------------------|   G:|---------------------|
D:|---------------------|   D:|---------------------|
A:|-33------1111--------|   A:|-3333------1111------|
D:|-----11--------3333--|   D:|------1111------3333-|

G:|---------------------|
D:|---------------------|
A:|-3333------1111------|
D:|------1111------3333-|

   (Yeah, ...)
G:|---------------------|
D:|---------------------|    x4
A:|-3333------1111------|
D:|------3333------1111-|

Pause von 2:09 bis 2:36

Vers:
   (This is how ...)
G:|---------------------|
D:|---------------------|    x2
A:|-3333------1111------|
D:|------3333------1111-|

Chorus:

G:|---------------------|   G:|---------------------|
D:|---------------------|   D:|---------------------|       
A:|-3333------1111------|   A:|-3333----------------|
D:|------1111------3333-|   D:|------1111-----------|

   (I've been wrong, ...)
G:|---------------------|
D:|---------------------|
A:|-33------1111--------|
D:|-----11--------3333--|

G:|---------------------|
D:|---------------------|
A:|-3333------1111------|
D:|------1111------3333-|

   (Yeah, ...)
G:|---------------------|         G:|---------------------|
D:|---------------------|    x3   D:|---------------------| 
A:|-3333------1111------|         A:|-3333----------------|
D:|------3333------1111-|         D:|------3333-----------|

DANKE und viel comments bitte ^^
Suggest correction
comments
print report bad tab
4 comments total. Showing first comments.
0 reply
Eiche09 30 May 04, 2011 10:38 AM

Great Tab man absolutly correct !!!

0 reply
dashulic 60 Aug 13, 2011 01:08 PM

the final "yeah" part is C D# A# F, not like in the previous ones (C F A# D#) at least it sounds (to me) like that in the official video.

The second verse the bass plays with the drum, not running.

0 reply
jacob_pereira 10 Jun 10, 2013 05:33 PM

its really this simple?

guest
You may want to rate the tab now too:
select rating
Wanna post a correction for this tab? Suggest correction