Oops, an error
Loading. Please wait.

I Dont Have Tab

version 1
version 1

Whole song

Interactive

1,901 views 1 this week
1 commentread comment
1 2 3 4 5
please rate
add to favorites
launch autoscroll
font size
0
reset
how to read this tab
guitar tuner
Tab Pro tools
  • play this tab
  • loop segment
  • change instrument
  • show fretboard
  • metronome
×
Best way to learn
"I Dont Have"
Autoscroll
slow
fast
+/-
esc
set tempo
stop
Contributor
Artist:Nickelback
Song Name:I Don't Have
Tuning:Drop D
Tabbed By:Pillie (pillie2001@hotmail.com)

 RIFF 1 (Intro)
Guitar 1
e|-----|--------------------|------------------|
B|-----|--------------------|------------------|
G|-----|--------------------|------------------|
D|--22-|-2h4--4--4/5\4-2-4/5|--2h4--4--4/5\4-2-|
A|--22-|-2h4--4-------------|--2h4--4----------|
D|--22-|-2h4--4-------------|--2h4--4----------|
PM |--|

Guitar 2
e|-----|--------------------|------------------|
B|-----|--------------------|------------------|
G|-----|--------------------|------------------|
D|-----|--------------------|----------------2-|
A|-----|--------------------|----------------2-|
D|-----|--------------------|----------------2-|

RIFF 2
Guitar 1
e|--------------------|------------------|
B|--------------------|------------------|
G|--------------------|------------------|
D|-2h4--4--4/5\4-2-4/5|--2h4--4--4/5\4-2-|
A|-2h4--4-------------|--2h4--4----------|
D|-2h4--4-------------|--2h4--4----------|


Guitar 2
e|--------------------|------------------|
B|--------------------|------------------|
G|--------------------|------------------|
D|-2h4--4-------------|--2h4--4----------|
A|-2h4--4-------------|--2h4--4----------|
D|-2h4--4-------------|--2h4--4----------|


RIFF 3
Guitar 1
e|--------------------|------------------|
B|--------------------|------------------|
G|--------------------|------------------|
D|-2h4--4--4/5\4-2-4/5|--2h4--4--0--0-2--|
A|-2h4--4-------------|--2h4--4--0--0-2--|
D|-2h4--4-------------|--2h4--4--0--0-2--|
  PM-----		PM-----

Guitar 2
e|--------------------|------------------|
B|--------------------|------------------|
G|--------------------|------------------|
D|-2h4--4-------------|--2h4--4--0--0-2--|
A|-2h4--4-------------|--2h4--4--0--0-2--|
D|-2h4--4-------------|--2h4--4--0--0-2--|
  PM-----		PM-----

FILL 1
Guitar 1
e|--------------------|------------------|
B|--------------------|------------------|
G|--------------------|------------------|
D|-2h4--4--4/5\4-2-4/5|------------------|
A|-2h4--4-------------|------------------|
D|-2h4--4-------------|------------------|
  PM-----		

Guitar 2
e|--------------------|------------------|
B|--------------------|------------------|
G|--------------------|------------------|
D|-2h4--4------------5|------------------|
A|-2h4--4------------5|------------------|
D|-2h4--4------------5|------------------|
  PM-----		

RIFF 4
Both Guitars
e|-----------------|-----------------|-----------------|-----------------|
B|-----------------|-----------------|-----------------|-----------------|
G|-4-4-4-4-4-4-4-4-|-2-2-2-2-2-2-2-2-|-----------------|-2-2-2-2-2-2-2-2-|
D|-4-4-4-4-4-4-4-4-|-2-2-2-2-2-2-2-2-|-5-5-5-5-5-5-5-5-|-2-2-2-2-2-2-2-2-|
A|-2-2-2-2-2-2-2-2-|-0-0-0-0-0-0-0-0-|-5-5-5-5-5-5-5-5-|-0-0-0-0-0-0-0-0-|
D|-----------------|-----------------|-5-5-5-5-5-5-5-5-|-----------------|

FILL 2
Both Guitars
e|-----------------|-----------------|-----------------|-----------------|
B|-----------------|-----------------|-----------------|-----------------|
G|-4-4-4-4-4-4-4-4-|-2-2-2-2-2-2-2-2-|-----------------|-2-2-2-----------|
D|-4-4-4-4-4-4-4-4-|-2-2-2-2-2-2-2-2-|-5-5-5-5-5-5-5-5-|-2-2-2-----------|
A|-2-2-2-2-2-2-2-2-|-0-0-0-0-0-0-0-0-|-5-5-5-5-5-5-5-5-|-0-0-0-----------|
D|-----------------|-----------------|-5-5-5-5-5-5-5-5-|-----------------|

RIFF 5
Both Guitars
E|-----------------|-----------------|-----------------|-----------------|
B|-----------------|-----------------|-----------------|-----------------|
G|-4--44-----------|-7--77-----------|-9--99-----------|-4--44-----------|
D|-4--44-----------|-7--77-----------|-9--99-----------|-4--44-----------|
A|-2--22-----------|-5--55-----------|-7--77-----------|-2--22-----------|
E|-----------------|-----------------|-----------------|-----------------|

FILL 3
E|-----------------|-----------------|-----------------|
B|-----------------|-----------------|-----------------|
G|-----------------|-----------------|-----------------|
D|-7-7-7-7-7-7-7-7-|-5-5-5-5-5-5-5-5-|-5-5-------------|
A|-7-7-7-7-7-7-7-7-|-5-5-5-5-5-5-5-5-|-5-5-------------|
E|-7-7-7-7-7-7-7-7-|-5-5-5-5-5-5-5-5-|-5-5-------------|

FILL 4
E|-----------------|-----------------|-----------------|
B|-----------------|-----------------|-----------------|
G|-----------------|-----------------|-----------------|
E|-7-7-7-7-7-7-7-7-|-5-5-5-5-5-5-5-5-|-7-7-7-7-7-7-7-7-|
E|-7-7-7-7-7-7-7-7-|-5-5-5-5-5-5-5-5-|-7-7-7-7-7-7-7-7-|
E|-7-7-7-7-7-7-7-7-|-5-5-5-5-5-5-5-5-|-7-7-7-7-7-7-7-7-|

RIFF 6
E|-----------------|-----------------|-----------------|-----------------|
B|-----------------|-----------------|-----------------|-----------------|
G|-5-5-x-5-5-5-----|-----------------|-----------------|-----------------|
D|-5-5-x-5-5-5-----|-5-5-x-5-5-5-----|-7-7-x-7-7-7-----|-7-7-x-7-7-7-----|
A|-3-3-x-3-3-3-----|-5-5-x-5-5-5-----|-7-7-x-7-7-7-----|-7-7-x-7-7-7-----|
E|-----------------|-5-5-x-5-5-5-----|-7-7-x-7-7-7-----|-7-7-x-7-7-7-----|

Fill 5
E|-----------------|-----------------|-----------------|-----------------|
B|-----------------|-----------------|-----------------|-----------------|
G|-5-5-x-5-5-5-----|-----------------|-----------------|-----------------|
D|-5-5-x-5-5-5-----|-5-5-x-5-5-5-----|-7-7-7-7-7-7-7-7-|-7-7-7-7-7-7-7-7-|
A|-3-3-x-3-3-3-----|-5-5-x-5-5-5-----|-7-7-7-7-7-7-7-7-|-7-7-7-7-7-7-7-7-|
E|-----------------|-5-5-x-5-5-5-----|-7-7-7-7-7-7-7-7-|-7-7-7-7-7-7-7-7-|
				      PM ----------Crescendo-------------

Riff 7
E|-----------------|-----------------|-----------------|-----------------|
B|-----------------|-----------------|-----------------|-----------------|
G|-4-4-4-4-4-4-4-4-|-7-7-7-7-7-7-7-7-|-9-9-9-9-9-9-9-9-|-4-4-4-4-4-4-4-4-|
D|-4-4-4-4-4-4-4-4-|-7-7-7-7-7-7-7-7-|-9-9-9-9-9-9-9-9-|-4-4-4-4-4-4-4-4-|
A|-2-2-2-2-2-2-2-2-|-5-5-5-5-5-5-5-5-|-7-7-7-7-7-7-7-7-|-2-2-2-2-2-2-2-2-|
E|-----------------|-----------------|-----------------|-----------------|



Riff 1 * 1
Riff 2 * 2

Riff 3 * 3
Fill 1 * 1

Riff 4 * 1
Fill 2 * 1
Riff 5 * 2
Fill 3 * 1

Riff 2 * 2
Riff 3 * 3 (No Palm Mute)
Fill 1 * 1


Riff 4 * 1
Fill 2 * 1
Riff 5 * 2

Fill 4 * 1

Riff 6 * 4 - SOLO
Riff 6 * 3
Fill 5 * 1

Riff 5 * 2

Riff 7 * 3
comments
We did not receive enough feedback on this tab! Please rate:
print report bad tab
1 2 3 4 5
1 comment total.
0 reply
Teen Spirit wrote on May 4 2007, 04:20 am

g.r.e.a.t. tab. simply excellent.

I want to post or [tab]
guest
You may want to rate the tab now too:
select rating
Please do not post tabs as comments. Select "correction" instead!