Oops, an error
Loading. Please wait.

Id Come For You Tab

version 2
version 2

Whole song

Interactive

2,720 views 1 this week
no commentswrite comment
1 2 3 4 5
please rate
add to favorites
launch autoscroll
font size
0
reset
how to read this tab
guitar tuner
Tab Pro tools
  • play this tab
  • loop segment
  • change instrument
  • show fretboard
  • metronome
×
Best way to learn
"Id Come For You"
Autoscroll
slow
fast
+/-
esc
set tempo
stop
|---7---10-----9-7-         ---7---10------9-7-|
|-7---7------7-----(play x3)-------------------|
|------------------         -7---7------7------|
|------------------         -------------------|
|------------------         -------------------|
|------------------         -------------------|
                           (play his on the 4th time


riff 1
'just one more moment.......needed....soldiers...healing
|------------------------|----------|----------|---------|
|------------------------|----------|----------|-2-2-2-2-|
|--------------4-4-4-4---|--0-0-0-0-|-2-2-2-2--|---------|
|------------------------|----------|----------|---------|
|------------------------|----------|----------|---------|
|------------------------|----------|----------|---------|

time to be honest...pleading...on it...mean it....
|-------------------------------------------|
|--------------------------------------3----|
|----------4--------4----------2-------2----|
|----------4--------5----------2------------|
|----------2--------5----------0------------|
|-------------------3-----------------------|
one guitar starts strumming and the other guitar keeps playing the part above. when you
to 'i can't beleive...' riff 1 stops playing.

all the verses are the same


chorus:
(it's the the same chords just playe in a different order)

    'i'd come for you..no one...yes i'd come...but only if...'
|------------------------------------------------------------|
|--[3]-------------------------------------------------------|
|-7[2]-----------------4[4]----2[2]-------------[4]----------|
|-7[0]-----------------4[4]----2[2]------------5[5]----------|
|-5--------------------2[2]----0[0]------------5[5]----------|
|----------------------------------------------3[3]----------|
(the chorus is distorted, but another guitar plays the clean chords which are in the [])


riff 2 (played at the end of the chorus)
|------------------------------------------------------------------------|
|---0-7-8---0-7-5---0-7-8---0-7-5---0-7-8---0-7-5---5-3/5\1-1--7-5/7\3-3-|
|-7---------------7---------------7---------------5-----------5----------|
|------------------------------------------------------------------------|
|------------------------------------------------------------------------|
|------------------------------------------------------------------------|
this riff is also played in 'no matter what gets in my way...'(where you play the same
as the chorus)

this is thepart before the last chorus:

 'yes i'd come for you..but you...for you.....'
|--------------------5-------------------5-----|
|--------------------3---------2---------3-----|
|--------------------2---------2---------2-----|
|------------------------------0---------------|
|----------------------------------------------|
|----------------------------------------------|

'but only if you told me to..
and i'd fight...............for you...........'
|-------------------------------15^---------------------------------|
|-------------------------------15^(just bend this part a little)---|
|--------5^8(with volume swell)-15^---------------------------------|
|-------------------------------------------------------------------|
|-------------------------------------------------------------------|
|-------------------------------------------------------------------|

'i'd lie..(etc.)
|----------|
|----------|
|----2[2]--|
|----4[4]--|
|----4[4]--|
|----------|
comments
We did not receive enough feedback on this tab! Please rate:
print report bad tab
1 2 3 4 5
I want to post or [tab]
guest
You may want to rate the tab now too:
select rating
Please do not post tabs as comments. Select "correction" instead!