Oops, an error
Loading. Please wait.

If Everyone Cared Tab

version 1
version 1
93,888 views 63 this week
8 commentsread comments
1 2 3 4 5
x 7
add to favorites
launch autoscroll
font size
0
reset
how to read this tab
guitar tuner
×
Best way to learn
"If Everyone Cared"
Autoscroll
slow
fast
+/-
esc
set tempo
stop
----------------------------------------------------------------------------
                             If Everyone Cared - Nickelback
----------------------------------------------------------------------------
Tabbed by: J-Stew
Email: dude88062000@yahoo.com

Tuning: Standard

[Verse/Intro]

e|-------------------------------------------------------------------------|
B|-------------------------------------------------------------------------|
G|----------2----------------4----------------1----------------2-----------|
D|------4-------4--------7--------7-------2---------2------4-------4-------|
A|----4---4---4--------7---7----7-------2---2----2-------4---4---4---------|
E|--2----------------5----------------0----------------2-------------------|

Okay some of you might question the 4 in the A chord but the reason why that
note is their is because of the chord construction they made. If you read on
guitar theory on this web site it will explain more.


[Chorus]

e|---------------0-0------------------0~---| I kinda gave you the rythym
B|---------------0-0------------------0~---| but still listen to the song
G|---------------1-1------------------1~---| fot timing.
D|-4-4----7-7----2-2----4-4----7-7----2~---|
A|-4-4----7-7----2-2----4-4----7-7----2~---|
E|-2-2----5-5----0-0----2-2----5-5----0~---|


Sorry no solo but if you fool around with the F# Scale you might find a little way to make one up.



************************************

| ~  Vibrato

************************************
Suggest correction
comments
print report bad tab
8 comments total. Showing first comments.
-1 reply
yoyojoe 281 Oct 21, 2005 03:00 PM

main riff would b easier played like:
e|------------------------------------------------------------------|
B|--------------------0---------------------------------------------|
G|------2---------2-----2---2----------1----------------2-----------|
D|---4---4-4----2---2-----2--------2---------2------4-----4--4------|
A|--4--4--4---0------------------2---2----2-------4---4-----4-------|
E|-2---------------------------0----------------2-------------------|

+1 reply
kalazare 10 Nov 18, 2005 08:38 PM

Wrong

+1 reply
kalazare 10 Nov 18, 2005 08:38 PM

Song: If Everyone Cared
Artist: Nickelback
Album: All the Right Reasons
Tuning: Drop D (DADGBE)

I submited this so that you all can get a taste of the accuracy of my inturpretaion of the music by ear.
I beilve that this is almost perfect. I'll review all corections for improvement. PLEASE POST IMPROVEMENTS IF NEEDED!!
Intro/Verse
|--------------------------------------------------------------------|
|--------------------------------------------------------------------|
|--------------------------------------------------------------------|
|-----4---6-----6/7------7---9--7--------2---4-----4------4---6-----4|
|---4---4---4----------7---7-----------2---2---2--------4---4---4----|
|-4-----------4------7--------7------2-----------2----4-----------4--|

Strum
|-------------------------------------|
|-------------------------------------|
|-------------------------------------|
|---7--------2-------4----------------|
|---7--------2-------4----------------|
|---7--------2-------4----------------|
(\"Amen, I\'m alive\")

Chorus
|-------------------------------------|
|-------------------------------------|
|-------------------------------------|
|--0-----7-----2-----4----------------|
|--0-----7-----2-----4----------------|
|--0-----7-----2-----4----------------|
4x Each Chord

Hold
|------|
|------|
|------|
|--2---|
|--2---|
|--2---|

Intro/Verse x 4
Prechorus x 2
Chorus x 2
Intro/Verse x 4
Prechorus x 2
Chorus x 4
Solo (play chorus chords x 2)
Verse x 2
Chorus x 7

Tell me what you think and how i should improve!! Have fun with this one guys!!

guest
You may want to rate the tab now too:
select rating
Wanna post a correction for this tab? Suggest correction