Oops, an error
Loading. Please wait.

If Everyone Cared Bass Tab

version 2
version 2

Whole song

1,758 views 1 this week
no commentswrite comment
1 2 3 4 5
3 more votes to show rating
add to favorites
launch autoscroll
font size
0
reset
guitar tuner
Autoscroll
slow
fast
+/-
esc
set tempo
stop
Help us to improve Ultimate-Guitar.com Take our survey!
×
Author
Difficulty
novice
-------------------------------------------------------------------------------
			                       If everyone cared - nickelback
-------------------------------------------------------------------------------

Tabbed By : Gustaf Hagstrom
e-mail: guggeh@telia.com

structure:

intro verse prechorus chorus verse chorus solo verse chorus outro


verse
G|---------------------------------------------------------------------------|
D|---------------------------------------------------------------------------|
A|------9-------12-------7-------9-------9-------12-------7-------9----------|
E|---------------------------------------------------------------------------|

prechorus
G|---------------------------------------------------------------------------|
D|---------------------------------------------------------------------------|
A|------12-------7-------9----------12-------7-------9-----------------------|
E|---------------------------------------------------------------------------|

chorus
G|---------------------------------------------------------------------------|
D|---------------------------------------------------------------------------|
A|---------------12-------7-------9----------------12-------7----------------|
E|------10--------------------------------10---------------------------------|

'and I'm singing'
G|---------------------------------------------------------------------------|
D|---------------------------------------------------------------------------|
A|------9-------12-------7-------9-------9-------12-------7------------------|
E|---------------------------------------------------------------------------|

solo (those are ten's and twelve's)
G|---------------------------------------------------------------------------|
D|---------------------------------------------------------------------------|
A|-------------------1212121212121212--77777777--99999999--------------------|
E|-1010101010101010----------------------------------------------------------|


G|---------------------------------------------------------------------------|
D|---------------------------------------------------------------------------|
A|-------------------1212121212121212--77777777------------------------------|
E|-1010101010101010----------------------------------------------------------|

outro
G|---------------------------------------------------------------------------|
D|---------------------------------------------------------------------------|
A|-------------------1212121212121212--77777777--99999999--------------------|
E|-1010101010101010--------------------------------------8-------------------|

G|---------------------------------------------------------------------------|
D|---------------------------------------------------------------------------|
A|-------------------1212121212121212--77777777--99999999--------------------|
E|-1010101010101010--------------------------------------8-------------------|

G|---------------------------------------------------------------------------|
D|---------------------------------------------------------------------------|
A|-------------------1212121212121212--77777777------------------------------|
E|-1010101010101010----------------------------------------------------------|

End on E

| /  slide up
| \  slide down
| h  hammer-on
| p  pull-off
| ~  vibrato
| +  harmonic
| x  Mute note
===============================================================================
Suggest correction
Give kudos to tab author, rate the tab!
1 2 3 4 5
comments
print report bad tab
guest
You may want to rate the tab now too:
select rating
Wanna post a correction for this tab? Suggest correction