Oops, an error
Loading. Please wait.

If Today Was Your Last Day Bass Tab

version 2
version 2

Whole song

Interactive

7,991 views 1 this week
no commentswrite comment
1 2 3 4 5
x 4
add to favorites
launch autoscroll
font size
0
reset
guitar tuner
Autoscroll
slow
fast
+/-
esc
set tempo
stop
Help us to improve Ultimate-Guitar.com Take our survey!
×
Author
Difficulty
novice
I'm usually too lazy to tab myself, but there were no good tabs for this song, so i 
to tab it. There might be notes played that aren't in the tab or i might have picked the 
string or whatever. Forgive me, I'm just a beginner (:

verse 2x

G|------------------------------------------------------------|
D|------------------------------------------------------------|
A|------------------------------------------------------------|
E|-5-55-5-55-5--8-88-8-88-8--3-33-3-33-3--10-1010-10-1010-10--|

verse variation 1x

G|--------------------------------------------------------|
D|--------------------------------------------------------|
A|--------------------------------------------------------|
E|-5-55-5-55-5--8-88-8-88-8--3-33-3-33-3--10~-------------|

chorus 1x

G|------------------------------------------------------------------|
D|------------------------------------------------------------------|
A|-8-8-8-8-8-8-8-8-3-3-3-3-3-3-3-3----------------------------------|
E|---------------------------------3-3-3-3-3-3-3-3-3-3-3-3-3-3-3-3--|

then

G|--------------------------------------------------|
D|--------------------------------------------------|
A|-8-8-8-8-8-8-8-8-3-3-3-3-3-3-3-3-5-55-5-55-5------|
E|----------------------------------------------5~--|

verse 3x
verse variation 1x
chorus 4x

then.. (listen close for the timing)


G|------------------|
D|------------------|
A|------------------|
E|-5~--555-555-55---|

bridge 4x

G|--------------------------------------------------------------------------|
D|--------------------------------------------------------------------------|
A|-12-12-12-12-12-12-12-12-----------------5-5-5-5-5-5-5-5-5-5-5-5-5-5-5-5--|
E|-------------------------3-3-3-3-3-3-3-3----------------------------------|

then

G|--------------------------------------------------|
D|--------------------------------------------------|
A|-8~--------------3~-------------------------------|
E|---------------------------------3~---------------|

chorus 3x

ending

G|------------------|
D|------------------|
A|-5~---------------|
E|------------------|
Suggest correction
comments
print report bad tab
guest
You may want to rate the tab now too:
select rating
Wanna post a correction for this tab? Suggest correction