Oops, an error
Loading. Please wait.

If Today Was Your Last Day Bass Tab

version 3
version 3

Whole song

Interactive

1,392 views 1 this week
1 commentread comment
1 2 3 4 5
2 more votes to show rating
add to favorites
launch autoscroll
font size
0
reset
guitar tuner
Autoscroll
slow
fast
+/-
esc
set tempo
stop
Help us to improve Ultimate-Guitar.com Take our survey!
×
Author
Difficulty
novice
Standard tuning
My first tab

Part A
G-----------------|-----------------|-----------------|-----------------|
D-----------------|-----------------|-----------------|-3-3-3-3-3-3-3-3-|
A-3-3-3-3-3-3-3-5-|-6-6-6-6-6-6-6-5-|-1-1-1-1-1-1-1-1-|-----------------|
E-----------------|-----------------|-----------------|-----------------|

sometimes will end with just D3 being played once to ring

Part B
G-----------------|-----------------|-----------------|-----------------|
D-----------------|-----------------|-----------------|-----------------|
A-3-3-3-3-3-3-3-5-|-6-6-6-6-6-6-6-5-|-1-1-1-1-1-1-1-1-|-----------------|
E-----------------|-----------------|-----------------|-1-1-1-1-1-1-1-1-|

Play Part A for the verse and intro 
Play Part B for the chorus
Suggest correction
Give kudos to tab author, rate the tab!
1 2 3 4 5
comments
print report bad tab
1 comment total.
0 reply
poweredbytofu 166 Apr 14, 2014 09:56 AM



Bridge:
G|-----------------|
D|-----------------|
A|-----------------|
E|-1-1-1-1-1-1-1-1-| x2, then

G|-----------------|-----------------|-----------------|-----------------|
D|-1-1-1-1-1-1-1-0-|-----------------|-----------------|-----------------|
A|-----------------|-1-1-1-1-1-1-1-1-|-----------------|-----------------|
E|-----------------|-----------------|-1-1-1-1-1-1-1-1-|-1-1-1-1-1-1-1-1-| x4

(then either silent for a bit or back to part A)

guest
You may want to rate the tab now too:
select rating
Wanna post a correction for this tab? Suggest correction