Oops, an error
Loading. Please wait.

Just To Get High Bass Tab

version 1
version 1

Whole song

Interactive

7,123 views 9 this week
no commentswrite comment
1 2 3 4 5
excellent!
x 4
add to favorites
launch autoscroll
font size
0
reset
guitar tuner
Tab Pro tools
  • play this tab
  • loop segment
  • change instrument
  • show fretboard
  • metronome
×
Best way to learn
"Just To Get High"
Autoscroll
slow
fast
+/-
esc
set tempo
stop
Contributor
Just To Get High - Nickelback
Bass Tab
Tuning: Drop D (DADG)

 (00:40)  Pre-Chorus
|-------------------------------|---------------|---------------|
|-------------------------------|---------------|---------------|
|1-1-1-1-1-1-1-1-1-1-1-1-1-1-1-1|---------------|3-3-3-3-3-3-3-3|
|-------------------------------|3-3-3-3-3-3-3-3|---------------|


 (00:50) Chorus
|----||--------------------------------|-------------------------------|
|----||--------------------------------|-------------------------------|
|----||--------------------------------|-------------------------------|
|/12\||0-0-0-0-0-0-0-0-0-0-0-0-0-0-0-0-|5-5-5-5-5-5-5-5-5-5-5-5-5-5-5-5|

|----------------|---------------|--------------------------------|
|----------------|---------------|--------------------------------|
|1-1-1-1-1-1-1-1-|3-3-3-3-3-3-3-3|--------------------------------|
|----------------|---------------|5-5-5-5-5-5-5-5-5-5-5-5-5-5-5-5-|


 (1:04) Verse
|--------------------------------|-------------------------------|
|--------------------------------|-------------------------------|
|--------------------------------|-------------------------------|
|0-0-0-0-0-0-0-0-0-0-0-0-0-0-0-0-|5-5-5-5-5-5-5-5-5-5-5-5-5-5-5-5|
                                                                               x2
|----------------|----------------|----------------|---------------|
|----------------|----------------|----------------|---------------| 
|1-1-1-1-1-1-1-1-|----------------|3-3-3-3-3-3-3-3-|---------------|
|----------------|3-3-3-3-3-3-3-3-|----------------|5-5-5-5-5-5-5-5|

 (1:34) Pre-Chorus

 (1:44) Chorus  X2

 (2:11)  Pre-Solo
|--------------------------------|----------------|----------------|
|--------------------------------|----------------|----------------|
|1-1-1-1-1-1-1-1-1-1-1-1-1-1-1-1-|----------------|----------------|
|--------------------------------|3-3-3-3-3-3-3-3-|5-5-5-5-5-5-5-5-|

 (2:18)  Solo (Chorus Riff) X2

 (2:45) BREAK

 (3:15) Chorus X3

 Tabbed By Wesfield
comments
print report bad tab
I want to post or [tab]
guest
You may want to rate the tab now too:
select rating
Please do not post tabs as comments. Select "correction" instead!