Oops, an error
Loading. Please wait.

Just To Get High Bass Tab

version 2
version 2

Whole song

Interactive

2,640 views 1 this week
1 commentread comment
1 2 3 4 5
excellent!
x 3
add to favorites
launch autoscroll
font size
0
reset
guitar tuner
Tab Pro tools
  • play this tab
  • loop segment
  • change instrument
  • show fretboard
  • metronome
×
Best way to learn
"Just To Get High"
Autoscroll
slow
fast
+/-
esc
set tempo
stop
Contributor
----------------------------------------------------------------------------
		  JUST TO GET HIGH - Nickelback
----------------------------------------------------------------------------
note: I took Wesfield's tabs and transcribed them into a 5-string tab

Tabbed By : Harley Fay 
e-mail: wefay@charter.net

Tuning: standard 5-string


Pre-Chorus:
G|-----------------------------------------------------------------|
D|-----------------------------------------------------------------|
A|-----------------------------------------------------------------|
E|-6-6-6-6-6-6-6-6-6-6-6-6-6-6-6-6-----------------8-8-8-8-8-8-8-8-|
B|---------------------------------6-6-6-6-6-6-6-6-----------------|

Short Pause

Chorus Intro:
G|-----|
D|-----|
A|-----|
E|-----|
B|-15\-|

Chorus:
G|-----------------------------------------------------------------|
D|-----------------------------------------------------------------|
A|-----------------------------------------------------------------|
E|-----------------------------------------------------------------|
B|-3-3-3-3-3-3-3-3-3-3-3-3-3-3-3-3/8-8-8-8-8-8-8-8-8-8-8-8-8-8-8-8-|

G|-----------------------------------------------------------------|
D|-----------------------------------------------------------------|
A|-----------------------------------------------------------------|
E|-6-6-6-6-6-6-6-6/8-8-8-8-8-8-8-8---------------------------------|
B|---------------------------------8-8-8-8-8-8-8-8-8-8-8-8-8-8-8-8-|

Verse: X2
G|-----------------------------------------------------------------|
D|-----------------------------------------------------------------|
A|-----------------------------------------------------------------|
E|-----------------------------------------------------------------|
B|-3-3-3-3-3-3-3-3-3-3-3-3-3-3-3-3/8-8-8-8-8-8-8-8-8-8-8-8-8-8-8-8-|

G|-----------------------------------------------------------------|
D|-----------------------------------------------------------------|
A|-----------------------------------------------------------------|
E|-6-6-6-6-6-6-6-6-----------------8-8-8-8-8-8-8-8-----------------|
B|-----------------6-6-6-6-6-6-6-6-----------------8-8-8-8-8-8-8-8-|

Pre-Chorus:
G|-----------------------------------------------------------------|
D|-----------------------------------------------------------------|
A|-----------------------------------------------------------------|
E|-6-6-6-6-6-6-6-6-6-6-6-6-6-6-6-6-----------------8-8-8-8-8-8-8-8-|
B|---------------------------------6-6-6-6-6-6-6-6-----------------|

Short Pause

Chorus Intro:
G|-----|
D|-----|
A|-----|
E|-----|
B|-15\-|

Chorus: X2
G|-----------------------------------------------------------------|
D|-----------------------------------------------------------------|
A|-----------------------------------------------------------------|
E|-----------------------------------------------------------------|
B|-3-3-3-3-3-3-3-3-3-3-3-3-3-3-3-3/8-8-8-8-8-8-8-8-8-8-8-8-8-8-8-8-|

G|-----------------------------------------------------------------|
D|-----------------------------------------------------------------|
A|-----------------------------------------------------------------|
E|-6-6-6-6-6-6-6-6/8-8-8-8-8-8-8-8---------------------------------|
B|---------------------------------8-8-8-8-8-8-8-8-8-8-8-8-8-8-8-8-|

Pre-Solo:
G|-----------------------------------------------------------------|
D|-----------------------------------------------------------------|
A|-----------------------------------------------------------------|
E|-6-6-6-6-6-6-6-6-6-6-6-6-6-6-6-6---------------------------------|
B|---------------------------------6-6-6-6-6-6-6-6/8-8-8-8-8-8-8-8-|

Solo (Chorus Riff): X2
G|-----------------------------------------------------------------|
D|-----------------------------------------------------------------|
A|-----------------------------------------------------------------|
E|-----------------------------------------------------------------|
B|-3-3-3-3-3-3-3-3-3-3-3-3-3-3-3-3/8-8-8-8-8-8-8-8-8-8-8-8-8-8-8-8-|

G|-----------------------------------------------------------------|
D|-----------------------------------------------------------------|
A|-----------------------------------------------------------------|
E|-6-6-6-6-6-6-6-6/8-8-8-8-8-8-8-8---------------------------------|
B|---------------------------------8-8-8-8-8-8-8-8-8-8-8-8-8-8-8-8-|

Pause

Chorus Intro:
G|-----|
D|-----|
A|-----|
E|-----|
B|-15\-|

Chorus: X3
G|-----------------------------------------------------------------|
D|-----------------------------------------------------------------|
A|-----------------------------------------------------------------|
E|-----------------------------------------------------------------|
B|-3-3-3-3-3-3-3-3-3-3-3-3-3-3-3-3/8-8-8-8-8-8-8-8-8-8-8-8-8-8-8-8-|

G|-----------------------------------------------------------------|
D|-----------------------------------------------------------------|
A|-----------------------------------------------------------------|
E|-6-6-6-6-6-6-6-6/8-8-8-8-8-8-8-8---------------------------------|
B|---------------------------------8-8-8-8-8-8-8-8-8-8-8-8-8-8-8-8-|
comments
We did not receive enough feedback on this tab! Please rate:
print report bad tab
1 2 3 4 5
1 comment total.
+1 reply
deadmanonfire wrote on January 29 2010, 12:07 pm

good job. an easy exercise in tabbing but usefull to us 5 string players.

I want to post or [tab]
guest
You may want to rate the tab now too:
select rating
Please do not post tabs as comments. Select "correction" instead!