Oops, an error
Loading. Please wait.

Kiss It Goodbye Tab

version 2
version 2

Whole song

582 views 1 this week
no commentswrite comment
1 2 3 4 5
please rate
add to favorites
launch autoscroll
font size
0
reset
how to read this tab
guitar tuner
Tab Pro tools
  • play this tab
  • loop segment
  • change instrument
  • show fretboard
  • metronome
×
Best way to learn
"Kiss It Goodbye"
Autoscroll
slow
fast
+/-
esc
set tempo
stop
Contributor
Difficulty
Tuning
novice
B F# B E G# C#
Artist: Nickelback
Song: Kiss It Goodbye
Album: Here And Now
Tuning: Drop B (BF#BEG#C#)


This is the 7th Song from the album "Here And Now".
I really don't know if it's the correct tuning but for me it sounds correct.
I think Chad Kroeger plays this song on a 7-string-guitar (Standard-Tuning)
and Ryan Peake on a 6-string-guitar (Drop B).
I play this song in Standard-Tuning.

Here are the riffs for that song and there's a riff-order on the bottom.


* = Palm Muted


Riff 1:

C#|-----------------|-----------------|
G#|-----------------|-----------------|
E |-----------5-----|-----------------|
B |-7-5-7-----5---5-|-7-5-7---3---3---|
F#|-7-5-7-----3---5-|-7-5-7---3---3---|
B |-7-5-7---------5-|-7-5-7---3---3---|


Riff 2:

    *   *   *   *     *   *   *   *
C#|-----------------|-----------------|
G#|-----------------|-----------------|
E |-----------------|-----------------|
B |-----------------|-----------------|
F#|-----3-3-----5-5-|-----3-3---------|
B |-7-7-----5-5-----|-7-7-----5-5-3-3-|


Riff 3:

    *   *   *   *     *   *   *   *
C#|-----------------|-----------------|
G#|-----------------|-----------------|
E |-----5-5-----7-7-|-----5-5---------|
B |-7-7-5-5-7-7-7-7-|-7-7-5-5-5-5-3-3-|
F#|-7-7-3-3-7-7-5-5-|-7-7-3-3-5-5-3-3-|
B |-7-7-----5-5-----|-7-7-----5-5-3-3-|


Riff 4:

C#|-----------------|-----------------|
G#|-3~--------------|-----------------|
E |-2~--------------|-----------------|
B |-0~--------------|-----------------|
F#|-0~--------------|-----------------|
B |-0~--------------|-----------------|


Riff-order:

Intro:      Riff 1 (2x)
Pre-Verse:  Riff 2 (2x)
Verse 1:    Riff 2 (2x)
Interlude:  Riff 3
Verse 2:    Riff 2 (2x)
Interlude:  Riff 3
Pre-Chorus: Riff 4, Riff 3, Riff 4
Chorus:     Riff 3 (4x)
Interlude:  Riff 2 (2x)
Verse 3:    Riff 2 (2x)
Interlude:  Riff 3
Verse 4:    Riff 2 (2x)
Interlude:  Riff 3
Pre-Chorus: Riff 4, Riff 3, Riff 4
Chorus:     Riff 3 (4x)
Bridge:     Riff 1 (4x)
Interlude:  Riff 2 (2x)
Chorus:     Riff 3 (4x)
Outro:      Riff 1 (4x)
comments
We did not receive enough feedback on this tab! Please rate:
print report bad tab
1 2 3 4 5
I want to post or [tab]
guest
You may want to rate the tab now too:
select rating
Please do not post tabs as comments. Select "correction" instead!