Oops, an error
Loading. Please wait.

Learn The Hard Way Bass Tab

445 views 1 this week
no commentswrite comment
1 2 3 4 5
please rate
add to favorites
launch autoscroll
font size
0
reset
guitar tuner
Autoscroll
slow
fast
+/-
esc
set tempo
stop
Help us to improve Ultimate-Guitar.com Take our survey!
×
Author
Band: Nickelback
Song: Lear The Hard Way (Bonus Track)
Album: The Long Road
Tuning 4-string: D-tuning (DADG)
tabbed By ClosedRoad

First only gutar then the bass comes in

Intro
G -------------------------------------|
D -------------------------------------|
A -------------------------------------| 2x
D -0000-00-1210910-10910-5555-3557530--|

Verse
G ---|-----------------|------|-----|-------|
D ---|-----------------|------|-----|-------|
A ---|---3---5---3-----|------|-----|-------|
D -0-|-34--34--34--340-|-12/0-|-5/0-|-12/0--|

Pre Chorus
G ----------------|
D ----------------|
A -0-3-4-5--------|
D ---------345-3--|

Chorus
G -----------------------------------|
D -----------------------------------|
A ---3--5----3--------3--5-----------| 2x
D -34-34---34-340---34-34---00-0-00--|

Verse
Pre Chorus
Chorus 2x
Intro 2x

Bridge
G --------------------------------|
D --------------------------------|
A ------35-----35-----35-----355--|
D -0345---0345----0345---0345-----|

G ------------------------------|
D ------------------------------|
A ---------------3---5---3------| Listen for perfect timing (in the begin)
D -12/-5/-12/--34--34--34--340--|

Pre chorus
Chorus 4x

that's it. I think the intro s**ks so if you got any corrections please tell me.
Have Fun and please rate it.
Greetings ClosedRoad
Suggest correction
Give kudos to tab author, rate the tab!
1 2 3 4 5
comments
print report bad tab
guest
You may want to rate the tab now too:
select rating
Wanna post a correction for this tab? Suggest correction