Oops, an error
Loading. Please wait.

Little Friend Bass Tab

version 1
version 1

Whole song

Interactive

261 views 1 this week
no commentswrite comment
1 2 3 4 5
please rate
add to favorites
launch autoscroll
font size
0
reset
guitar tuner
Autoscroll
slow
fast
+/-
esc
set tempo
stop
Help us to improve Ultimate-Guitar.com Take our survey!
×
Contributor
Teen Spirit 3,022
Little Friend - Nickelback - Curb

Don't come in until 0:14

G|--------|
D|--------|
A|--------|
D|3-------|

Intro 

G|------------------------------|
D|-----------(x3)---------------|
A|------------------------------|
D|00-000-03--------00-000-03033-|

Verse (yes, its very simple, just listen for the timing)

G|-------------------------------|
D|-----------(x7)----------------|
A|-------------------------------|
D|00-000-03--------00-000-03033/-|

Chorus

G|-----------------------------------------|
D|-----------------------------------------|
A|11111111-33333333------------------------|
D|------------------00-000-3--00-000-03033-|

Verse (same as the first)

G|-------------------------------|
D|-----------(x7)----------------|
A|-------------------------------|
D|00-000-03--------00-000-03033/-|

Chorus

G|----------------------------------------------|  (x2)
D|---------------------------(x3)---------------|
A|11111111-33333333-----------------------------|
D|------------------00-000-3-------00-000-03033-|

Bridge

G|-------------------| (x12)
D|-------------------|
A|----5h3------------|
D|0-00----5-33-03-53-|

Final Chorus

G|----------------------------------------------------|
D|----------------------------------------------------|
A|1111111111111111-3333333333333333-11111111-33333333-|
D|----------------------------------------------------|

G|--------------------------|
D|---------(x3)-------------|
A|--------------------------|
D|00-000-3-----00-000-03033-|

G|--------------------------------------------------------------------|
D|--------------------------------------------------------------------|
A|1111111111111111-3333333333333333-----------------------------------|
D|----------------------------------3333333333333333-5555555555555555-|

G|--------------------------------|
D|---------------------------(x4)-|
A|11111111-33333333---------------|
D|------------------00-000-3------|

Let that final note ring.
comments
We did not receive enough feedback on this tab! Please rate:
print report bad tab
1 2 3 4 5
I want to post or [tab]
guest
You may want to rate the tab now too:
select rating
Please do not post tabs as comments. Select "correction" instead!